Oops, an error
Loading. Please wait.
We have an official No Control tab made by UG professional guitarists. Check out the tab »
×
5,939 views 3 this week
2 commentsread comments
1 2 3 4 5
x 4
add to favorites
×
Save as Personal and add changes to this tab that will be seen only by you. Learn more ›
×
You can save this tab as Personal to edit and correct it or add notes. All changes will be seen only by you. Learn more »
launch autoscroll
font size
0
reset
how to read this tab
guitar tuner
edit
Autoscroll
slow
fast
+/-
esc
set tempo
stop
#----------------------------------PLEASE NOTE---------------------------------#
#This file is the author's own work and represents their interpretation of the #
#song. You may only use this file for private study, scholarship, or research. #
#------------------------------------------------------------------------------##
From: ihbryant@mailhost.ecn.uoknor.edu (Ira Houston Bryant Iv)


I've seen some requests for Bad Religion here, and though
this song is pretty easy, I like it.  I thought I'd just
throw it out here.  Tell me if you want any other easy
stuff.  Tabbing is really good ear practice.


No Control
from the album No Control
by Bad Religion
Trancribed by Ira Bryant


[Intro]

Riff 1
    B5      D5      A5   E5
e|---------------------------------|
B|---------------------------------|
G|----------7---7--------9--9-9-9--|
D|--9---9---7---7---7--7-9--9-9-9--| x4
A|--9---9---5---5---7--7-7--7-7-7--|
E|--7---7-----------5--5-----------|


[Verse 1]

Riff 2

e|---------------------------------|
B|---------------------------------|
G|---------------------------------|
D|---------------------------------| x4
A|----------5---5--------7--7-7-7--|
E|--7---7-----------5--5-----------|
    |- - - - - - - - - - - - - - |
    palm muting

Verse 1:

Culture was the seed of proliferation
But it has gotten melted
Into an inharmonic whole
To an inharmonic whole

Consciousness has plagued us
And we cannot shake it
Though we think we're in control
Though we think we're in control


[Chorus]

    G5   A5   G5   A5   G5   A5      A5
e|---------------------------------------|
B|---------------------------------------|
G|-----------------------------------14--|
D|--5----7----5----7----5----7-------14--|
A|--5----7----5----7----5----7-------12--|
E|--3----5----3----5----3----5-----------|

    B5   A5   G5   A5   B5   A5   G5   A5
e|----------------------------------------|
B|----------------------------------------|
G|----------------------------------------|
D|--9----7----5----7----9----7----5----7--|
A|--9----7----5----7----9----7----5----7--|
E|--7----5----3----5----7----5----3----5--|

Words for chorus:

Questions that besiege us in life
Are testament
Of our helplessness

There's no vestige of a beginning     ) in the lyrics, this is
No prospect of an end                 ) is attributed to Hutton, 1795
When we all desintegrate                Anyone know who that is?
It will happen all again
Yeah


[Interlude]

Riff 1
    B5      D5      A5   E5
e|---------------------------------|
B|---------------------------------|
G|----------7---7--------9--9-9-9--|
D|--9---9---7---7---7--7-9--9-9-9--|
A|--9---9---5---5---7--7-7--7-7-7--|
E|--7---7-----------5--5-----------|


[Verse 2]

Riff 2

e|---------------------------------|
B|---------------------------------|
G|---------------------------------|
D|---------------------------------| x8
A|----------5---5--------7--7-7-7--|
E|--7---7-----------5--5-----------|
    |- - - - - - - - - - - - - - |
    palm muting

Verse 2:

Time is so rock solid in the minds of the hoards
But they can't
Explain why it should slip away
Explain why it should slip away

History and future are the comforts of our curiosity
But here we are
Rooted in the present day
Rooted in the present day


[Chorus]

    G5   A5   G5   A5   G5   A5      A5
e|---------------------------------------|
B|---------------------------------------|
G|-----------------------------------14--|
D|--5----7----5----7----5----7-------14--|
A|--5----7----5----7----5----7-------12--|
E|--3----5----3----5----3----5-----------|

    B5   A5   G5   A5   B5   A5   G5   A5
e|----------------------------------------|
B|----------------------------------------|
G|----------------------------------------|
D|--9----7----5----7----9----7----5----7--|
A|--9----7----5----7----9----7----5----7--|
E|--7----5----3----5----7----5----3----5--|


[Bridge]

    B5   A5   G5   A5   B5   A5   G5   A5   B5   A5   D5   E5
e|--------------------------------------------------------------|
B|--------------------------------------------------------------|
G|----------------------------------------------------7----9----|
D|--9----7----5----7----9----7----5----7----9----7----7----9----|
A|--9----7----5----7----9----7----5----7----9----7----5----7----|
E|--7----5----3----5----7----5----3----5----7----5--------(0)---|

(note in parentheses rings, sympathetic resonance)

If you came to conquer you'll be king for a day
But you too will deteriorate and quickly fade away
And believe these words you hear when you think your path is clear...



[Final Chorus/Outro]

    B5   G5   A5        B5   G5   A5
e|----------------------------------------|
B|----------------------------------------|
G|----------------------------------------|
D|--9----5----7---------9----5----7-------|
A|--9----5----7---------9----5----7-------|
E|--7----3----5---------7----3----5-------|
    We have no control  We have no control


    B5   G5   D5   A5       B5   G5   D5   A5
e|-----------------------|------------------------|
B|-----------------------|------------------------|
G|------------7----------|------------7-----------|
D|--9----5----7----7-----|--9----5----7----7------|
A|--9----5----5----7-----|--9----5----5----7------|
E|--7----3---------5-----|--7----3---------5------|
    We have no control,     You have no control,
    We do not understand    You are not in command


    B5   G5   A5        B5   G5   A5
e|----------------------------------------|
B|----------------------------------------|
G|----------------------------------------|
D|--9----5----7---------9----5----7-------|
A|--9----5----7---------9----5----7-------|
E|--7----3----5---------7----3----5-------|
    You have no control We have no control


    B5   G5   D5   A5   B5   G5   D5   A5
e|----------------------------------------|
B|----------------------------------------|
G|------------7-------------------7-------|
D|--9----5----7----7----9----5----7----7--|
A|--9----5----5----7----9----5----5----7--|
E|--7----3---------5----7----3---------5--|
    No control          No control


    B5      A5 B5      A5 B5      A5 B5
e|--------------------------------------|
B|--------------------------------------|
G|--------------------------------------|
D|--9--9-9--7--9--9-9--7--9--9-9--7--9--|
A|--9--9-9--7--9--9-9--7--9--9-9--7--9--|
E|--7--7-7--5--7--7-7--5--7--7-7--5--7--|
    You have no control


I've gone over it a gazillion times looking for mistakes.  I think I
got them all, but probably not.  Email me if you find one.

Ira
______________________________________________________________________________
|  ihbryant@mailhost.ecn.uoknor.edu |  Pledge, Triangle Fraternity, OK Chap. |
|----------------------------------------------------------------------------|
|  Let us go and be killed where we are told to go.  Is life worth so many   |
|  questions?                                                                |
|                --Athos, from "The Three Musketeers" by Alexandre Dumas     |
------------------------------------------------------------------------------ 

            
            
Suggest correction
Creating personal tab
Creating personal tab
You can edit any tab online and save it as your Personal.

You can edit, replace or remove any tab part or add personal notes – all changes will be seen only by you.

Personal tabs can be accessed anytime from any device, even offline.
Learn more »
comments
print report bad tab
2 comments total.
0 reply
The_PuNkeMon 10 Jan 08, 2005 07:00 PM

I think they mute the complete chord here:

e:---------------------------------|
B:---------------------------------|
G:----------7---7--------9--9-9-9--|
D:--9---9---7---7---7--7-9--9-9-9--|
A:--9---9---5---5---7--7-7--7-7-7--|
E:--7---7-----------5--5-----------|
|- - - - - - - - - - - - - - |
palm muting

Awesome tab however

0 reply
metalplayer69 10 Apr 05, 2005 08:00 PM

Hutton 1795 was a scientist whos theory "no veseige of begging, no process of an end" was based on the developement on the earth and how it was created. He meant there was no telling when it was made. Theres your little history lesson. Nice tab.

guest
Wanna post a correction for this tab? Suggest correction