Oops, an error
Loading. Please wait.

Cardiac Arrest bass

version 2
version 2

Whole song

490 views 3 this week
no commentswrite comment
1 2 3 4 5
1 last vote to show rating
add to favorites
×
Save as Personal and add changes to this tab that will be seen only by you. Learn more ›
×
You can save this tab as Personal to edit and correct it or add notes. All changes will be seen only by you. Learn more »
launch autoscroll
font size
0
reset
guitar tuner
edit
Autoscroll
slow
fast
+/-
esc
set tempo
stop
-------------------------------------------------------------------------------
                          Cardiac Arrest - Bad Suns
-------------------------------------------------------------------------------
Tabbed by: Micah Hobson
E-mail: shadowbreakmusic@gmail.com

Tuning: Half-step Down

Intro
G|---------------------------------------------------------------------------|
D|-------------------------5-5-4-4----0-0----2-2-----0-0-5-5-5-5-------------|
A|-0-2-2-2-2-2-2-2-5-5-------------22-----22------22-------------------------|
E|---------------------3-3---------------------------------------------------|

Verse
G|---------------------------------------------------------------------------|
D|----------------------55-5-5------------------------0-0-55-5-5-------------|
A|-22-5-5-22-7-7-22-5-5--------2-22-5-5-22-7-7-22-5-5------------------------|
E|---------------------------------------------------------------------------|

Chorus:x2
G|---------------------------------------------------------------------------|
D|--------------55-----------------------------------------------------------|
A|----0-55555-0----0-55555-0----0-55555-0-22-0-55555-0-----------------------|
E|-33------------------------33----------------------------------------------|

Verse2
G|---------------------------------------------------------------------------|
D|----------------------55-5-5\4-------------------------0-0-55-5-5----------|
A|-22-5-5-22-7-7-22-5-5--------------2-5-5-22-7-7-22-5-5---------------------|
E|-------------------------------3-3-----------------------------------------|

Chorus:x2
G|---------------------------------------------------------------------------|
D|--------------55-----------------------------------------------------------|
A|----0-55555-0----0-55555-0----0-55555-0-22-0-55555-0-----------------------|
E|-33------------------------33----------------------------------------------|

Solo
G|---------------------------------------------------------------------------|
D|------00000--------22222--------00000---55---55555-4-----------------------|
A|-22-0-------0-22-0-------0-22-0-------0----0-------------------------------|
E|---------------------------------------------------------------------------|

G|---------------------------------------------------------------------------|
D|------00000--------2--2--2---00000---55---55555-4--------------------------|
A|-22-0-------0-22-0---------0-------0----0----------------------------------|
E|---------------------------------------------------------------------------|

Chorus:x4
G|---------------------------------------------------------------------------|
D|--------------55-----------------------------------------------------------|
A|----0-55555-0----0-55555-0----0-55555-0-22-0-55555-0-----------------------|
E|-33------------------------33----------------------------------------------|

Thanks for reading this tab! Remember to rate and comment and if you have any 
suggestions feel free to add 'em. I'll make sure to discuss them and improve 
the tab whenever possible.

| /  slide up
| \  slide down
| h  hammer-on
| p  pull-off
| ~  vibrato
| +  harmonic
| x  Mute note
===============================================================================

            
            
Suggest correction
Creating personal tab
Creating personal tab
You can edit any tab online and save it as your Personal.

You can edit, replace or remove any tab part or add personal notes – all changes will be seen only by you.

Personal tabs can be accessed anytime from any device, even offline.
Learn more »
Give kudos to tab author, rate the tab!
1 2 3 4 5
comments
print report bad tab
guest
You may want to rate the tab now too:
select rating
Wanna post a correction for this tab? Suggest correction