Oops, an error
Loading. Please wait.

Hedron bass

version 2
version 2

Whole song

952 views 18 this week
1 commentread comment
1 2 3 4 5
x 4
add to favorites
×
Save as Personal and add changes to this tab that will be seen only by you. Learn more ›
×
You can save this tab as Personal to edit and correct it or add notes. All changes will be seen only by you. Learn more »
launch autoscroll
font size
0
reset
guitar tuner
edit
Autoscroll
slow
fast
+/-
esc
set tempo
stop
Author
Difficulty
-------------------------------------------------------------------------------
                             Hedron - BADBADNOTGOOD
-------------------------------------------------------------------------------
Tabbed by: Some Guy
E-mail: jp.reyescampillo@gmail.com

Tuning:EADG

The intro has variations when played live, but this is how it sounds in the studio recording.

Along the song there's also some improvisation and some additional notes, feel free to improvise those, or 
help me tab them.

Obviously there's no Chorus/Verse, but if there's no timestamp, just play it continously and listen to the 
brief pauses.

Enjoy, and let me know if I made any mistakes :)

[Intro]
G|----------------15-----13------13------------------------15-----13---------------|
D|.-13-------13---13-----13---16-----15-------13------13---------------------------|
A|.-------16-------------------------16------------16------------------------------|
E|--14----------------------------------------14-----------13-----12-----11--------|

G|--13------------15-----13------13--18--------------------15-----13-----11--------|
D|-----------13---13-----13---16-----15-------13------13--------------------------.|
A|--------16---------------------------------------16-----------------------------.|
E|--14----------------------------------------14-----------13-----12-----11--------| x3

G|---------------------------------------------------------------------------------|
D|---------------------------------------------------------------------------------|
A|--5-----4-----7-----4-----2-----1-----------------------------------------/7-----|
E|--------------------------------------5-----4-----5-----4-----5-----4------------|
 
                    2:01
G|--------------------------------------------------------------------|
D|--------------------1--4--3-----------------------------------------|
A|----------------------------1---------------------------------------|
E|--------------------------------------------------------------------|

    2:25
G|---------------------------------------------------------------------------|
D|---------------------------------------------------------------------------|
A|--------1-1-----1-1---1-1-----------1/2-----2-2---2-2----------------------|
E|--1-2-4-----------------------1-2-4----------------------------------------|

G|---------------------------------------------------------------------------|
D|---------------------------------------------------------------------------|
A|--------1-1-----1-1---1-1-----------1/2-----2-2---2-2----------------------|
E|--1-2-4-----------------------1-2-4----------------------------------------|

G|---------------------------------------------------------------------------|
D|----------1--1-------------1--1--------------------------------------------|
A|--------1----------------1-------------------1-4-----------1---------------|
E|--1-2-4------------1-2-4--------------1-2-4---------1-2-4---4--------------|

G|---------------------------------------------------------------------------|
D|----------1--1-------------1--1--------------------------------------------|
A|--------1----------------1-------------------1-4-----------1---------------|
E|--1-2-4------------1-2-4--------------1-2-4---------1-2-4---4--------------|

G|---------------------------------------------------------------------------|
D|---------------------------------------------------------------------------|
A|----------1-1-----------1-1-----------1/2-----------1/2--------------------|
E|----1-2-4---------1-2-4---------1-2-4---------1-2-4------------------------|

G|---------------------------------------------------------------------------|
D|----------------------------------------1-------------1--------------------|
A|----------1-------------1-------------1-------------1----------------------|
E|----1-2-4---4-----1-2-4---2-----1-2-4---------1-2-4------------------------|

G|---------------------------------------------------------------------------|
D|---------------------------------------------------------------------------|
A|----------111--111--111--1-------111--111--111--1--------------------------|
E|----1-2-4------------------1-2-4-------------------------------------------|

G|---------------------------------------------------------------------------|
D|---------------------------------------------------------------------------|
A|----------1/222--222--222--2-------1/222--222--222--2----------------------|
E|----1-2-4--------------------1-2-4-----------------------------------------|

G|---------------------------------------------------------------------------|
D|---------------------------------------------------------------------------|
A|----------111--111--111--1-------111--111--111--1--------------------------|
E|----1-2-4------------------1-2-4-------------------------------------------|

G|---------------------------------------------------------------------------|
D|---------------------------------------------------------------------------|
A|----------1/222--222--222--2-------1/222--222--222--2----------------------|
E|----1-2-4--------------------1-2-4-----------------------------------------|

G|-------------------------------------------------------------------------------|
D|----------111111111111------111111111111---------------------------------------|
A|----------------------------------------------444444444444---------------------|
E|----------------------------------------------------------------444444\\\\\1---|

G|-------------------------------------------------------------------------------|
D|----------111111111111------111111111111---------------------------------------|
A|----------------------------------------------444444444444---------------------|
E|----------------------------------------------------------------444444\\\\\1---|

G|-------------------------------------------------------------------------------|
D|-------------------------------------------------------------------------------|
A|--------111111111-------111111111-----------1/22222222-----------1/22222222----|
E|--1-2-4-----------1-2-4---------------1-2-4----------------1-2-4---------------|

G|-------------------------------------------------------------------------------|
D|-------------------------------------------------------------------------------|
A|--------111111111-------111111111-----------1/22222222-----------1/22222222----|
E|--1-2-4-----------1-2-4---------------1-2-4----------------1-2-4---------------|

G|----------------15-----13------13------------------------15-----13-------------|
D|--13-------13---13-----13---16-----15-------13------13-------------------------|
A|--------16-------------------------16------------16----------------------------|
E|--14----------------------------------------14-----------13-----12-----11------|

G|----------------15-----13------13------------------------15-----13-------------|
D|.-13-------13---13-----13---16-----15-------13------13-------------------------|
A|.-------16-------------------------16------------16----------------------------|
E|--14----------------------------------------14-----------13-----12-----11------|

G|--13------------15-----13------13--18--------------------15-----13-------------|
D|-----------13---13-----13---16-----15-------13------13-------------------------|
A|--------16---------------------------------------16----------------------------|
E|--14----------------------------------------14-----------13-----12-------------| 


************************************

| /  Slide up
| \  Slide down
| X:XX minute on the song

************************************

            
            
Suggest correction
Creating personal tab
Creating personal tab
You can edit any tab online and save it as your Personal.

You can edit, replace or remove any tab part or add personal notes – all changes will be seen only by you.

Personal tabs can be accessed anytime from any device, even offline.
Learn more »
comments
print report bad tab
1 comment total.
0 reply
jwmcmurtrie 200 Aug 07, 2017 11:30 PM

Spot on, great work

guest
You may want to rate the tab now too:
select rating
Wanna post a correction for this tab? Suggest correction