Oops, an error
Loading. Please wait.

Shooting Stars solo tab

version 1
version 1

Solo

Whole song

Interactive

9,640 views 309 this week
1 commentread comment
1 2 3 4 5
x 44
add to favorites
×
Save as Personal and add changes to this tab that will be seen only by you. Learn more ›
×
You can save this tab as Personal to edit and correct it or add notes. All changes will be seen only by you. Learn more »
launch autoscroll
font size
0
reset
how to read this tab
guitar tuner
edit
Autoscroll
slow
fast
+/-
esc
set tempo
stop
e|----------------------------|-----------------------------------------|
B|--------4--4--5-------------|--------7--7--9----------7--9--7-------7-|
G|-----------------4----------|-----------------8----------------8------|
D|--------------------6-------|--------------------9----------------9---|
A|----------------------------|-----------------------------------------|
E|----------------------------|-----------------------------------------|

A very short riff that is played through the majority of the song. A great meme song.

            
            
Suggest correction
Creating personal tab
Creating personal tab
You can edit any tab online and save it as your Personal.

You can edit, replace or remove any tab part or add personal notes – all changes will be seen only by you.

Personal tabs can be accessed anytime from any device, even offline.
Learn more »
comments
print report bad tab
1 comment total.
0 reply
franklouisungria 33 4 days ago

the 1st part of the intro goes like this

(/ = slide)

e|----5/7---3/4--5/7--3/4-----|
B|----------------------------|
G|----------------------------|
D|----------------------------|
A|----------------------------|
E|----------------------------|

guest
You may want to rate the tab now too:
select rating
Wanna post a correction for this tab? Suggest correction