Oops, an error
Loading. Please wait.

I Cant Do This Alone tab

version 1
version 1

Whole song

9,702 views 6 this week
1 commentread comment
1 2 3 4 5
x 7
add to favorites
×
Save as Personal and add changes to this tab that will be seen only by you. Learn more ›
×
You can save this tab as Personal to edit and correct it or add notes. All changes will be seen only by you. Learn more »
launch autoscroll
font size
0
reset
how to read this tab
guitar tuner
edit
Autoscroll
slow
fast
+/-
esc
set tempo
stop
Author
Difficulty
I'm too lazy to tab out the strumming patterns, they're easy enough to work out if you 
just listen to the song...

Intro/Verse
e|------------------------------------------------------------------------|
B|------------------------------------------------------------------------|
G|----------------0--0----------------------------------------------------|
D|--------2--2-----2--2---------------------------------------------------|
A|--0-0----0--0-----------------------------------------------------------|
E|----------3--1-1--1-----------------------------------------------------|

e|------------------------------------------------------------------------|
B|------------------------------------------------------------------------|
G|------------------------------------------------------------------------|
D|--7---5---3-------------------------------------------------------------|
A|--7---5---3----repeat as needed-----------------------------------------|
E|--5---3---1-------------------------------------------------------------|
"And the thought of it shakes all my bones..."

Instrumental Bridge bit - corrected thanks to Harness
e|----------------------------------------------------------------|
B|----------------------------------------------------------------|
G|---7---14---12---9----------------------------------------------|
D|---x---x----x----x----------------------------------------------|
A|---5---12---10---7----------------------------------------------|
E|----------------------------------------------------------------|


e|-------------------------------------------0~----------------------------|
B|-------------------------------------------0~----------------------------|
G|-------------------------------------------0~----------------------------|
D|---3---7---5-------------------------------0~----------------------------|
A|---3---7---5---After the second time round-0~---then continue as normal--|
E|---1---5---3-------------------------------0~----------------------------|
     x   x   x
"Rest now, for you lie in the arms of another man, hand in hand..."

e|------------------------------------------------------------------------|
B|------------------------------------------------------------------------|
G|------------------------------------------------------------------------|
D|--7---5---3~------------------------------------------------------------|
A|--7---5---3~----repeat as needed----------------------------------------|
E|--5---3---1~------------------------------------------------------------|
"I always see you in my sleep..."

Outro
e|------------------------------------------------------------------------|
B|------------------------------------------------------------------------|
G|----------------0--0----------------------------------------------------|
D|--------2b-2b----2--2----repeat as needed-------------------------------|
A|--0-0----0--0-----------------------------------------------------------|
E|----------3--1-1--1-----------------------------------------------------|
"I can't think of a single thing out there, that can soothe..."

End on...

e|------------------------------------------------------------------------|
B|------------------------------------------------------------------------|
G|------------------------------------------------------------------------|
D|----2~------------------------------------------------------------------|
A|----x-------------------------------------------------------------------|
E|----1~------------------------------------------------------------------|

As far as I know this is all pretty much right, such an easy and fun song to play. Feel 
free to comment with any corrections

            
            
Suggest correction
Creating personal tab
Creating personal tab
You can edit any tab online and save it as your Personal.

You can edit, replace or remove any tab part or add personal notes – all changes will be seen only by you.

Personal tabs can be accessed anytime from any device, even offline.
Learn more »
comments
print report bad tab
1 comment total.
+1 reply
Harness 105 Jul 07, 2011 06:09 AM

Sounds good to me buddy, I'd just change this though..

Instrumental Bridge  bit -
e|----------------------------------------------------------------|
B|----------------------------------------------------------------|
G|---7---14---12---9----------------------------------------------|
D|---x---x----x----x----------------------------------------------|
A|---5---12---10---7----------------------------------------------|
E|----------------------------------------------------------------|

guest
You may want to rate the tab now too:
select rating
Wanna post a correction for this tab? Suggest correction