Oops, an error
Loading. Please wait.

Why Do You Leave Us tab

133 views 1 this week
no commentswrite comment
1 2 3 4 5
3 more votes to show rating
add to favorites
×
Save as Personal and add changes to this tab that will be seen only by you. Learn more ›
×
You can save this tab as Personal to edit and correct it or add notes. All changes will be seen only by you. Learn more »
launch autoscroll
font size
0
reset
how to read this tab
guitar tuner
edit
Autoscroll
slow
fast
+/-
esc
set tempo
stop
Author
Difficulty
About this tab version
Includes all three guitar parts. Was this info helpful? Yes No
Balance and Composure
"Why Do You Leave Us"

Standard tuning. Corrections welcome!

In 3/4

[Intro]
  G1 
e|------------|------------|------------|------------|
B|------------|------------|------------|------------|
G|------------|------------|------------|------------|
D|----4--/6~--|------------|------------|------------|
A|------------|------------|------------|------------|
E|------------|------------|------------|------------|
 |G2
e|------------|------------|------------|------------|
B|------------|------------|------------|------------|
G|------------|------------|------------|------------|
D|----6---6---|--6---6-----|----6---6---|----6---6---|
A|--2---2---2/|4---4---4-4-|--4---4-----|--4---4---4-|
E|0-----------|------------|5---------5-|2-----------|


[Verse]
  G1,2
e|------------|------------|------------|------------|
B|------------|------------|------------|------------|
G|------------|------------|------------|------------|
D|----6---6---|--6---6-----|----6---6---|----6---6---| X2
A|--2---2---2/|4---4---4-4-|--4---4-----|--4---4---4-|
E|0-----------|------------|5---------5-|2-----------|

  G1
e|------------|------------|--0---------|------------|
B|------0-----|------0-----|----0-------|------------|
G|------------|------------|--------6---|----6---6---|
D|--6-------6-|--6-------6-|------6---6-|--6---6---6-|
A|4-----------|4-----------|4-----------|4-----------|
E|------------|------------|------------|------------|
 |G2                                                   X2
e|------------|------------|------------|------------|
B|------------|------------|------------|------------|
G|------------|------------|------------|------------|
D|----6---6---|--6---6-----|----6---6---|----6---6---|
A|--2---2---2/|4---4---4-4-|--4---4-----|--4---4---4-|
E|0-----------|------------|5---------5-|2-----------|
 
  G3
e|------------|------------|------------|------------|
B|7-----7-----|7-----7-----|7-----7-----|7-----7-----|
G|--9-----9---|--9-----9---|--9-----9---|--9-----9---|
D|----9-----9-|----9-----9-|----9-----9-|----9-----9-|
A|------------|------------|------------|------------|
E|------------|------------|------------|------------|
 |G2                                                   X3
e|------------|------------|------------|------------|
B|------------|------------|------------|------------|
G|------------|------------|------------|------------|
D|----6---6---|--6---6-----|----6---6---|----6---6---|
A|--2---2---2/|4---4---4-4-|--4---4-----|--4---4---4-|
E|0-----------|------------|5---------5-|2-----------|

                                                          Rest
e|------------|------------|------------|------------|------------|
B|7-----7-----|7-----7-----|7-----9-7---|7-----7-----|------------|
G|--9-----9---|--9-----9---|--9---------|--9-----9---|------------|
D|----9-----9-|----9-----9-|----9-----9-|----9-----9-|------------|
A|------------|------------|------------|------------|------------|
E|------------|------------|------------|------------|------------|
 |                                                        Rest  
e|------------|------------|------------|------------|------------|
B|------------|------------|------------|------------|------------|
G|------------|------------|------------|------------|------------|
D|----6---6---|--6---6-----|----6---6---|----6---6---|------------|
A|--2---2---2/|4---4---4-4-|--4---4-----|--4---4---4-|------------|
E|0-----------|------------|5---------5-|2-----------|------------|


[Chorus]
  G1,2,3
e|------------|------------|------------|------------|
B|------------|------------|------------|------------|
G|6-6-6-6-6-6-|------------|------------|------------|
D|6-6-6-6-6-6-|4-4-4-4-4-4-|2-2-2-2-2-2-|4-4-4-4-4-4-| X2
A|4-4-4-4-4-4-|4-4-4-4-4-4-|2-2-2-2-2-2-|4-4-4-4-4-4-|
E|------------|2-2-2-2-2-2-|0-0-0-0-0-0-|2-2-2-2-2-2-|

  G1
e|------------|------------|------------|------------|
B|9-9-9-9-9-9-|9-9\5-5-5-5/|9-9-9-9-9-9-|9-9\5-5-5-5/|
G|------------|------------|------------|------------|
D|6-6-6-6-6-6-|6-6\2-2-2-2/|6-6-6-6-6-6-|6-6\2-2-2-2/|
A|------------|------------|------------|------------|
E|------------|------------|------------|------------|
 |G2,3                                                 X2
e|------------|------------|------------|------------|
B|------------|------------|------------|------------|
G|6-6-6-6-6-6-|------------|------------|------------|
D|6-6-6-6-6-6-|4-4-4-4-4-4-|2-2-2-2-2-2-|4-4-4-4-4-4-|
A|4-4-4-4-4-4-|4-4-4-4-4-4-|2-2-2-2-2-2-|4-4-4-4-4-4-|
E|------------|2-2-2-2-2-2-|0-0-0-0-0-0-|2-2-2-2-2-2-|

  Let ring
e|------------|------------|------------|------------|
B|9-----------|------------|------------|------------|
G|x-----------|------------|------------|------------|
D|6-----------|------------|------------|------------|
A|------------|------------|------------|------------|
E|------------|------------|------------|------------|
 |             Let ring
e|------------|------------|------------|------------|
B|------------|------------|------------|------------|
G|------------|------------|------------|------------|
D|2-2-2-4-4-4-|6-----------|------------|------------|
A|2-2-2-4-4-4-|4-----------|------------|------------|
E|0-0-0-2-2-2-|5-----------|------------|------------|

  Let ring
e|------------|------------|------------|------------|------------|
B|9-----------|------------|------------|------------|------------|
G|x-----------|------------|------------|------------|------------|
D|6-----------|------------|------------|------------|------------|
A|------------|------------|------------|------------|------------|
E|------------|------------|------------|------------|------------|
 |             Let ring
e|------------|------------|------------|------------|------------|
B|------------|------------|------------|------------|------------|
G|------------|------------|------------|------------|------------|
D|2-2-2-4-4-4-|6-----------|------------|------------|2-2-2-4-4-4-|
A|2-2-2-4-4-4-|4-----------|------------|------------|2-2-2-4-4-4-|
E|0-0-0-2-2-2-|5-----------|------------|------------|0-0-0-2-2-2-|


[Verse]
  G1
e|------------|------------|------------|------------|
B|------------|------------|------------|------------|
G|------------|------------|------------|------------|
D|6-----------|------------|------------|------------|<-Play first time only
A|4-----------|------------|------------|------------|
E|5-----------|------------|------------|------------|
 |G2
e|------------|------------|------------|------------|
B|------------|------------|------------|------------|
G|------------|------------|------------|------------|
D|----6---6---|--6---6-----|----6---6---|----6---6---| X2
A|--2---2---2/|4---4---4-4-|--4---4-----|--4---4---4-|
E|0-----------|------------|5---------5-|2-----------|


e|------------|------------|--0---------|------------|
B|------0-----|------0-----|----0-------|------------|
G|------------|------------|--------6---|----6---6---|
D|--6-------6-|--6-------6-|------6---6-|--6---6---6-|
A|4-----------|4-----------|4-----------|4-----------|
E|------------|------------|------------|------------|
 |G2                                                   X2
e|------------|------------|------------|------------|
B|------------|------------|------------|------------|
G|------------|------------|------------|------------|
D|----6---6---|--6---6-----|----6---6---|----6---6---|
A|--2---2---2/|4---4---4-4-|--4---4-----|--4---4---4-|
E|0-----------|------------|5---------5-|2-----------|
 

  G3
e|------------|------------|------------|------------|
B|7-----7-----|7-----7-----|7-----7-----|7-----7-----|
G|--9-----9---|--9-----9---|--9-----9---|--9-----9---|
D|----9-----9-|----9-----9-|----9-----9-|----9-----9-|
A|------------|------------|------------|------------|
E|------------|------------|------------|------------|
 |G1                                                   X2
e|------------|------------|------------|------------|
B|------------|------------|------------|------------|
G|------------|------------|------------|------------|
D|----6---6---|--6---6-----|----6---6---|----6---6---|
A|--2---2---2/|4---4---4-4-|--4---4-----|--4---4---4-|
E|0-----------|------------|5---------5-|2-----------|

  G1
e|------------|------------|------------|------------|
B|------------|------------|------------|------------|
G|------------|------------|------------|------------|
D|----6---6---|--6---6-----|----6---6---|----6---6---|
A|--2---2---2/|4---4---4-4-|--4---4-----|--4---4---4-|
E|0-----------|------------|5---------5-|2-----------|

  G2
e|------------|------------|--0---------|------------|
B|------0-----|------0-----|----0-------|------------|
G|------------|------------|--------6---|6-6---------|
D|--6-------6-|--6-------6-|------6---6-|6-6---------|
A|4-----------|4-----------|4-----------|4-4---------|
E|------------|------------|------------|------------|
 |G1
e|------------|------------|------------|------------|
B|------------|------------|------------|------------|
G|------------|------------|------------|------------|
D|----6---6---|--6---6-----|----6---6---|6-6---------|
A|--2---2---2/|4---4---4-4-|--4---4-----|4-4---------|
E|0-----------|------------|5---------5-|2-2---------|


[Chorus]
  G1,2,3
e|------------|------------|------------|------------|
B|------------|------------|------------|------------|
G|6-6-6-6-6-6-|------------|------------|------------|
D|6-6-6-6-6-6-|4-4-4-4-4-4-|2-2-2-2-2-2-|4-4-4-4-4-4-| X2
A|4-4-4-4-4-4-|4-4-4-4-4-4-|2-2-2-2-2-2-|4-4-4-4-4-4-|
E|------------|2-2-2-2-2-2-|0-0-0-0-0-0-|2-2-2-2-2-2-|

  G1
e|------------|------------|------------|------------|
B|9-9-9-9-9-9-|9-9\5-5-5-5/|9-9-9-9-9-9-|9-9\5-5-5-5/|
G|------------|------------|------------|------------|
D|6-6-6-6-6-6-|6-6\2-2-2-2/|6-6-6-6-6-6-|6-6\2-2-2-2/|
A|------------|------------|------------|------------|
E|------------|------------|------------|------------|
 |G2,3                                                 X2
e|------------|------------|------------|------------|
B|------------|------------|------------|------------|
G|6-6-6-6-6-6-|------------|------------|------------|
D|6-6-6-6-6-6-|4-4-4-4-4-4-|2-2-2-2-2-2-|4-4-4-4-4-4-|
A|4-4-4-4-4-4-|4-4-4-4-4-4-|2-2-2-2-2-2-|4-4-4-4-4-4-|
E|------------|2-2-2-2-2-2-|0-0-0-0-0-0-|2-2-2-2-2-2-|

  Let ring
e|------------|------------|------------|------------|
B|9-----------|------------|------------|------------|
G|x-----------|------------|------------|------------|
D|6-----------|------------|------------|------------|
A|------------|------------|------------|------------|
E|------------|------------|------------|------------|
 |             Let ring
e|------------|------------|------------|------------|
B|------------|------------|------------|------------|
G|------------|------------|------------|------------|
D|2-2-2-4-4-4-|6-----------|------------|------------|
A|2-2-2-4-4-4-|4-----------|------------|------------|
E|0-0-0-2-2-2-|5-----------|------------|------------|


e|------------|------------|------------|------------|------------|
B|9-----------|------------|------------|------------|------------|
G|x-----------|------------|------------|------------|------------|
D|6-----------|------------|------------|------------|------------|
A|------------|------------|------------|------------|------------|
E|------------|------------|------------|------------|------------|
 |             Let ring
e|------------|------------|------------|------------|------------|
B|------------|------------|------------|------------|------------|
G|------------|------------|------------|------------|------------|
D|2-2-2-4-4-4-|6-----------|------------|------------|2-2-2-4-4-4-|
A|2-2-2-4-4-4-|4-----------|------------|------------|2-2-2-4-4-4-|
E|0-0-0-2-2-2-|5-----------|------------|------------|0-0-0-2-2-2-|

Switch to 4/4 time...

[Outro]
  G1          Fade out (play first time only)
e|--------------------------------|--------------------------------|
B|--------------------------------|--------------------------------|
G|--------------------------------|--------------------------------|
D|6-------------------------------|--------------------------------|
A|4-------------------------------|--------------------------------|
E|5-------------------------------|--------------------------------|
 |G2
e|--------------------------------|--------------------------------| \
B|9----------/11--11-\9---9-------|--------7/9-------------7/9-----|  |
G|x-----------x---x---x---x-------|--------x-x-------------x-x-----|  |
D|6----------/9---9--\6---6-------|--------4/6-------------4/6-----|  |
A|--------------------------------|--------------------------------|  |
E|--------------------------------|--------------------------------|  |
 |G3                                                                  |
e|--------------------------------|--------------------------------|  |
B|--------------------------------|--------------------------------|  |
G|6-----------9---9---6---6-------|--------6~--------------6~------|  |
D|6-----------9---9---6---6-------|--------6~--------------6~------|  |
A|4-----------7---7---4---4-------|--------4~--------------4~------|  |
E|--------------------------------|--------------------------------|  |
                                                                      |
  G2                                                                  |X2
e|--------------------------------|--------------------------------|  |
B|7---------------5-7-9---9-------|--------7/9-------------7/9-----|  |
G|x---------------x-x-x---x-------|--------x-x-------------x-x-----|  |
D|4---------------2/4/6---6-------|--------4/6-------------4/6-----|  |
A|--------------------------------|--------------------------------|  |
E|--------------------------------|--------------------------------|  |
 |G3                                                                  |
e|--------------------------------|--------------------------------|  |
B|--------------------------------|--------------------------------|  |
G|--------------------6---6-------|--------4/6-------------4/6-----|  |
D|4-----------7---7---6---6-------|--------4/6-------------4/6-----|  |
A|4-----------7---7---4---4-------|--------2/4-------------2/4-----|  |
E|2-----------5---5---4---4-------|--------------------------------| /


  G2
e|--------------------------------|--------------------------------| \
B|--------------------------------|--------------------------------|  |
G|--4-6---6-4---4-6-4-------------|--------------------------------|  |
D|--------------------6---6~------|--------------------------------|  |
A|--------------------------------|--------------------------------|  |
E|--------------------------------|--------------------------------|  |
 |G2                                                                  |
e|--------------------------------|--------------------------------|  |
B|9----------/11--11-\9---9-------|--------7/9-------------7/9-----|  |
G|x-----------x---x---x---x-------|--------x-x-------------x-x-----|  |
D|6----------/9---9--\6---6-------|--------4/6-------------4/6-----|  |
A|--------------------------------|--------------------------------|  |
E|--------------------------------|--------------------------------|  |
 |G3                                                                  |
e|--------------------------------|--------------------------------|  |
B|--------------------------------|--------------------------------|  |
G|6-----------9---9---6---6-------|--------6~--------------6~------|  |
D|6-----------9---9---6---6-------|--------6~--------------6~------|  |
A|4-----------7---7---4---4-------|--------4~--------------4~------|  |
E|--------------------------------|--------------------------------|  |
                                                                      |
                                                                      |X4
e|--------------4-5-4-------------|--------------------------------|  |
B|--5-7---7-5-7-------7-5---------|--------------------------------|  |
G|------------------------6~------|------------------------4~------|  |
D|--------------------------------|--------------------------------|  |
A|--------------------------------|--------------------------------|  |
E|--------------------------------|--------------------------------|  |
 |                                                                    |
e|--------------------------------|--------------------------------|  |
B|7---------------5-7-9---9-------|--------7/9-------------7/9-----|  |
G|x---------------x-x-x---x-------|--------x-x-------------x-x-----|  |
D|4---------------2/4/6---6-------|--------4/6-------------4/6-----|  |
A|--------------------------------|--------------------------------|  |
E|--------------------------------|--------------------------------|  |
 |                                                                    |
e|--------------------------------|--------------------------------|  |
B|--------------------------------|--------------------------------|  |
G|--------------------6---6-------|--------4/6-------------4/6-----|  |
D|4-----------7---7---6---6-------|--------4/6-------------4/6-----|  |
A|4-----------7---7---4---4-------|--------2/4-------------2/4-----|  |
E|2-----------5---5---4---4-------|--------------------------------| /


[End]
  G2,3    Let ring and fade out
e|--------------------------------|
B|--------------------------------|
G|6-------------------------------|
D|6-------------------------------|
A|4-------------------------------|
E|4-------------------------------|



************************************
| x   Dead note
| /   Slide up
| \   Slide down
| ~   Vibrato

************************************

            
            
Suggest correction
Creating personal tab
Creating personal tab
You can edit any tab online and save it as your Personal.

You can edit, replace or remove any tab part or add personal notes – all changes will be seen only by you.

Personal tabs can be accessed anytime from any device, even offline.
Learn more »
Give kudos to tab author, rate the tab!
1 2 3 4 5
comments
print report bad tab
guest
You may want to rate the tab now too:
select rating
Wanna post a correction for this tab? Suggest correction