Oops, an error
Loading. Please wait.

Hunger At The Door bass

429 views 3 this week
no commentswrite comment
1 2 3 4 5
3 more votes to show rating
add to favorites
×
Save as Personal and add changes to this tab that will be seen only by you. Learn more ›
×
You can save this tab as Personal to edit and correct it or add notes. All changes will be seen only by you. Learn more »
launch autoscroll
font size
0
reset
guitar tuner
edit
Autoscroll
slow
fast
+/-
esc
set tempo
stop
Author
Difficulty
Title: Hunger at the Door
Artist: Balthazar
Album: Applause

Chorus A
---------------------------------------------------------------------------------------------------|
---------------------------------------------------------------------------------------------------|
-------------------------5-3-5-----3-5-5---5-----3-2-3-----2-3-3---3-----1-0-1-----1-0-0---0-------|
--3-0-3-----0-3-3---3------------------------------------------------------------------------------|


Verse
----------------------------------------------------------------------------------------|
----------------------------------------------------------------------------------------|
--10-10-10-10-10-10-10-10-10-13-13-13-8--10---5--5--5--5--5--5--5--5--5--3--3--5--5--8--|
----------------------------------------------------------------------------------------|
                                                        
----------------------------------------------------------------------------------------|
----------------------------------------------------------------------------------------|
--8--3--3--3--3--3--3--3--3--15-15-17-17-10---10-13-13-13-13-13-13-13-13-12-12-12-12-12-|
----------------------------------------------------------------------------------------|
                                                                                           

Bridge/Outro
---------------------------------------------------------------------------------------------------|
---------------------------------------------------------------------------------------------------|
--10-10-5s-10-10-5s-10-10-5s-10-10-5s-11-11-11-11-10-10-5s-10-10-5s-10-10-5s-11-11-11-11-11-11-11--|
---------------------------------------------------------------------------------------------------|


Solo
----------------------------------------------------------------------------------------|
----------------------------------------------------------------------------------------|
--10-10-10-10-10-10----10-10-10-10-10-10-10---------------------------------------------|
---------------------------------------------10-10-10-10-10-10----10-10-10-10-10-10-10--|

----------------------------------------------------------------------------------------|
----------------------------------------------------------------------------------------|
----------------------------------------------------------------------------------------|
--8--8--8--8--8--8-----8--8--8--8--8--8--8--6--6--6--6--6--6-----6--5--5--5--5--5--5----|


Chorus B
----------------------------------------------------------------------------------------|
----------------------------------------------------------------------------------------|
--10-10-10-------10----10-10-10-10-10-10-10---------------------------------------------|
----------------------------------------------10-10-10-------10----10-10-10-10-10-10-10-|

----------------------------------------------------------------------------------------|
----------------------------------------------------------------------------------------|
----------------------------------------------------------------------------------------|
--8--8--8--8--8--8-----8--8--8--8--8--8--8----6--6--6--6--6--6--6--6--5-----------------|

Chorus A         x3
Verse            x2
Chorus A         x2
Bridge/Outro     x1
Verse            x2     *repeat the last note 1 measure (14 times)
Solo             x2
Chorus A         x1
Chorus B         x1
Bridge/Outro     x4     *end on the 11th fret

There are some variations going on here and there, particularly at the end of most riffs.
I haven't included them because they would make the whole tab incomprehensible. 
If you want all the little nuances, however, just let me know.

            
            
Suggest correction
Creating personal tab
Creating personal tab
You can edit any tab online and save it as your Personal.

You can edit, replace or remove any tab part or add personal notes – all changes will be seen only by you.

Personal tabs can be accessed anytime from any device, even offline.
Learn more »
Give kudos to tab author, rate the tab!
1 2 3 4 5
comments
print report bad tab
guest
You may want to rate the tab now too:
select rating
Wanna post a correction for this tab? Suggest correction