Oops, an error
Loading. Please wait.

For Annabelle tab

version 1
version 1

Whole song

11,614 views 9 this week
2 commentsread comments
1 2 3 4 5
x 8
add to favorites
×
Save as Personal and add changes to this tab that will be seen only by you. Learn more ›
×
You can save this tab as Personal to edit and correct it or add notes. All changes will be seen only by you. Learn more »
launch autoscroll
font size
0
reset
how to read this tab
guitar tuner
edit
Autoscroll
slow
fast
+/-
esc
set tempo
stop
-----------------------------------------------------------------------------
                      FOR ANNABELLE (TRUDY) - Band of Horses
-----------------------------------------------------------------------------

Tabbed by: Brandon Lau
Email: yoshitongfa@gmail.com
---------------------------
Tuning: Drop D (DADGBE)
Time Signature: Waltz, let's use 3/4
     
/ = slide up
\ = slide down
h = hammer on/off

Pretty simple song, but the into is harder to play than it sounds, I think 
they used two guitars for the recording, Lyrics from songmeanings.net

-----------------------------------------------------------------------------
Intro (Fingerpicked): 

e|------------------|------------------|------------------|-----------------|
B|10/12\7-----------|------------------|------------------|7----------------|
G|----------------4-|4h5-7-7/9~--------|------------------|-----------------|
D|7 /9 \4-----------|----------------7\|4---------------4-|-----------------|
A|------------5-----|------------5-----|------5-----5-----|------5-----5----|
D|0-----------------|0-----------------|0-----------------|0----------------| 
              
e|------------------|------------------|------------------|-----------------|
B|7/10\7------------|------------------|------------------|-----------------|
G|----------------4-|5--7--5\4---4-h5h4|2-----------2-h4h2|-----------------|
D|4/7 \4------------|------0-----0-----|------0-----0-----|4-------------4/5|
A|0-----------5-----|------------------|------------------|------5----5-----|
D|0-----------------|0-----------------|0-----------------|0----------------|
 ^strum

e|------------------|------------------|------------------|-----------------|
B|------------------|------------------|3-----5-----7-----|8-----10----14---|
G|5-----------------|5-----------------|------------------|-----------------|
D|---------------4/5|------------------|4-----5-----7-----|9-----11----14---|
A|-----7-----7------|-----7-----7----\5|------------------|-----------------|
D|7-----------------|7-----------------|0-----------------|-----------------|

Verse (Strummed):

These are the chord voicing I use(remember its in Drop D tuning):

D        000232
D/C#     X40232
Bm       X24432
Bm/A     X04432
G        55500X
A        777600

D          D/C#                 Bm   Bm/A
If I want to walk home with you
G                                     A
Hearing every word, thinking it's true
D          D/C#                 Bm   Bm/A
In a barren field for us to cut through
G                                     A
On our victory lap 'cross an old street cat

Chorus:

G                          D
That turns to stop and see you
G                               D
A small stone somewhere in your shoe
    D/C#   Bm 
All day long
D   D/C#   Bm
All day long
Long

Sitar Interlude:

D   D/C#  Bm   Bm/A   G   A

Verse:

D          D/C#                 Bm   Bm/A
The old folks wake up for the day
G                                             A
Seeing the monsters have lingered from the past
D          D/C#                 Bm   Bm/A
And a great bird is flying away
G                                            A
From our family tree; something wrong with me

Chorus:

G                    D
I've got a secret or two
G                
Hiding somewhere but
   D     D/C#      Bm
It won't take long
      D     D/C#   Bm
No it won't take long 
Long

Sitar Outro:
 
D   D/C#   Bm   Bm/A   G   A

D   D/C#   Bm   Bm/A   G   A

D

Cheers!

-----------------------------------------------------------------------------

            
            
Suggest correction
Creating personal tab
Creating personal tab
You can edit any tab online and save it as your Personal.

You can edit, replace or remove any tab part or add personal notes – all changes will be seen only by you.

Personal tabs can be accessed anytime from any device, even offline.
Learn more »
comments
print report bad tab
2 comments total.
0 reply
ooominhooo 40 Aug 02, 2014 11:15 AM

Lack of accuracy.

0 reply
wbalston 211 Oct 28, 2014 01:31 PM

i think the chords sound more like the melody of the song using standard shapes, except for the G, play up on barre 3 and just omit the 6th string.

guest
You may want to rate the tab now too:
select rating
Wanna post a correction for this tab? Suggest correction