Oops, an error
Loading. Please wait.

Waltzing Matilda tab

version 3
version 3
10,428 views 3 this week
2 commentsread comments
1 2 3 4 5
x 8
add to favorites
×
Save as Personal and add changes to this tab that will be seen only by you. Learn more ›
×
You can save this tab as Personal to edit and correct it or add notes. All changes will be seen only by you. Learn more »
launch autoscroll
font size
0
reset
how to read this tab
guitar tuner
edit
Autoscroll
slow
fast
+/-
esc
set tempo
stop
Author
Difficulty
Waltzing Matilda
Banjo Patterson


The song as it was played the WIN Television ad. This has the outline of the tune, as 
as a little accompanyment. The notes in the brackets, along with the notes in the bass, 
meant to be played softly underneath the main tune.

Tabbed by P]-[oenix, Standard tuning

E||---4-------4-------2-------2-------|--0--2--4--0--------0----|
B||------(0)-----(0)-----(0)-----(0)--|--------------2--4-------|
G||-----------------------------------|-------------------------|
D||-----------------------------------|-------------------------|
A||-----------------------------------|--0-----------0----------|
E||---0---------------0---------------|-------------------------|

|-------0--4--7-------7--7--|--7-------7-------7-------0--2--|
|--0-------------(0)--------|-----(0)-----(0)-----(0)--------|
|---------------------------|--------------------------------|
|---------------------------|--------------------------------|
|-------------0-------------|--0---------------0-------------|
|--0------------------------|--------------------------------|

|--4-------4-------2-------2-------|--0--2--4--0--------0----|
|-----(0)-----(0)-----(0)-----(0)--|--------------2--4-------|
|----------------------------------|-------------------------|
|----------------------------------|-------------------------|
|----------------------------------|--0-----------0----------|
|--0---------------0---------------|-------------------------|

|-------0--4--7-------5--4--|--2-------2--0--0--------|
|--0-------------(0)--------|-----(0)-----------------|
|---------------------------|-------------------------|
|---------------------------|-------------------------|
|-------------0-------------|--2----------------------|
|--0------------------------|----------------0--------|

|--7-------7--7--7-------4-------|--12-------12--12--11-------9-------|
|-----(0)-----------(0)-----(0)--|------(0)--------------(0)-----(0)--|
|--------------------------------|------------------------------------|
|--------------------------------|------------------------------------|
|--------------------------------|---0----------------0---------------|
|--0-------------0---------------|------------------------------------|

|--7-------7--7--9-------7--7--|--7-------5--4--2-------0--2--|
|-----(0)-----------(0)--------|-----(0)-----------(0)--------|
|------------------------------|------------------------------|
|------------------------------|------------------------------|
|------------------------------|--0-------------0-------------|
|--0-------------0-------------|------------------------------|

|--4-------4-------2-------2-------|--0--2--4--0--------0----|
|-----(0)-----(0)-----(0)-----(0)--|--------------2--4-------|
|----------------------------------|-------------------------|
|----------------------------------|-------------------------|
|----------------------------------|--0-----------0----------|
|--0---------------0---------------|-------------------------|


                                                      4x
|-------0--4--7-------5--4--|--2-------2--0--0---------||
|--0-------------(0)--------|-----(0)------------------||
|---------------------------|--------------------------||
|---------------------------|--------------------------||
|-------------0-------------|--2-----------------------||
|--0------------------------|----------------0---------||

            
            
Suggest correction
Creating personal tab
Creating personal tab
You can edit any tab online and save it as your Personal.

You can edit, replace or remove any tab part or add personal notes – all changes will be seen only by you.

Personal tabs can be accessed anytime from any device, even offline.
Learn more »
comments
print report bad tab
2 comments total.
0 reply
je1693 10 Apr 15, 2009 08:08 PM

absolutly brillant tab sounds perfect easy to play

0 reply
bigmike1250001 21 Jun 17, 2009 05:51 PM

thanks so much, after watching it on win hd iv been looking for the tab all over

guest
You may want to rate the tab now too:
select rating
Wanna post a correction for this tab? Suggest correction