Oops, an error
Loading. Please wait.

Fugue solo tab

181 views 3 this week
no commentswrite comment
1 2 3 4 5
x 4
add to favorites
×
Save as Personal and add changes to this tab that will be seen only by you. Learn more ›
×
You can save this tab as Personal to edit and correct it or add notes. All changes will be seen only by you. Learn more »
launch autoscroll
font size
0
reset
how to read this tab
guitar tuner
edit
Autoscroll
slow
fast
+/-
esc
set tempo
stop
About this tab version
This tab was made for one guitar player that can play the main guitar part of the song in the most economic way. I was mainly oriented on the original song from the record but I had also watched the few live videos that you can find online. The electric part in the original song is played with two guitars(twin guitar harmonies). Was this info helpful? Yes No
Artist: Baroness
Song:   Fugue (solo)
Album:  Purple (2015)
Label:  Abraxan Hymns
Tuning: D Tuning (DGCfad)
Tabbed by: dupree79

[Solo]
(clean guitar part start @ 0:52 min)
d|-----------------9--8----|----------------12--11--9--7--9-----|------------------------------------------|
a|-----------7--9--------9-|----------7--9-------------------10-|-12--9------9-----------7--9--------------|
f|--6--8--9----------------|-6--8--9----------------------------|--------11-----9--8--8--------9--11--8--6-|
C|-------------------------|------------------------------------|------------------------------------------|
G|-------------------------|------------------------------------|------------------------------------------|
D|-------------------------|------------------------------------|------------------------------------------|

(electric guitar part start @ 1:20 min)
d|-----------------9--8hb--|----------------12--11--9--7--9-----|------------------------------------------|
a|-----------7--9--------9-|----------7--9-------------------10-|-12--9------9-----------7--9--------------|
f|--6--8--9----------------|-6--8--9----------------------------|--------11-----9--8--8--------9--11--8--6-|
C|-------------------------|------------------------------------|------------------------------------------|
G|-------------------------|------------------------------------|------------------------------------------|
D|-------------------------|------------------------------------|------------------------------------------|


************************************

| hb   half bend

************************************

            
            
Suggest correction
Creating personal tab
Creating personal tab
You can edit any tab online and save it as your Personal.

You can edit, replace or remove any tab part or add personal notes – all changes will be seen only by you.

Personal tabs can be accessed anytime from any device, even offline.
Learn more »
comments
print report bad tab
guest
You may want to rate the tab now too:
select rating
Wanna post a correction for this tab? Suggest correction