Oops, an error
Loading. Please wait.

Little Things tab

3,556 views 21 this week
no commentswrite comment
1 2 3 4 5
x 5
add to favorites
×
Save as Personal and add changes to this tab that will be seen only by you. Learn more ›
×
You can save this tab as Personal to edit and correct it or add notes. All changes will be seen only by you. Learn more »
launch autoscroll
font size
0
reset
how to read this tab
guitar tuner
edit
Autoscroll
slow
fast
+/-
esc
set tempo
stop
-------------------------------------------------------------------------------
                             Little Things - Baroness
-------------------------------------------------------------------------------
Tabbed by: smygan ... with help from Magnus (THANK YOU!)
E-mail: smygan@gmail.com

Tuning: D DGCFAD 

Tabbed from watching
https://www.youtube.com/watch?v=09J01IpAlIk



 Riff A                                                            
|----3-3-----2-2---------------------------3-3-----2-2-----------------------|
|--------------------3--------0-1p0------------------------3-----0-1-0-------|
|-------------------------0-2-------2p0----------------------0-2-------2---2-|
|-2-------2-------2---------------------2-------2-------2--------------------|
|----------------------------------------------------------------------------|
|----------------------------------------------------------------------------|

Riff A 6x before Verse



Riff B                      (repeat 3x)
|--------------------------------------|-------------------------------------|
|--------------------------------------|-------------------------------------|
|--------0-----------------------------|---------0---------------------------|
|------2------2---------0-----4----5---|------2-------2---------4h5-4--------|
|----2----------2-----5-----5----------|----2-----------2-----5--------------|
|-0---------------0-3-----3------------|-0----------------0-3----------------|

Riff B 3x during Verse

Cry your eyes out               A lesson left unlearned
I wish I was airborne           Then I could watch it turn
They’ve taken everything Hung us out to dry They’ve taken every thing Now you're...


Pre-Chorus
|----------------------------------------------------------------------------|
|-12---------10----------13-----12---------------12------10------13----------|
|-12-(8x)-----9-(8x)------9-(6x)-9---13----------12-(4x)--9-(4x)-12-(8x)-----|
|------------------------------------14-(8x)---------------------------------|
|----------------------------------------------------------------------------|
|----------------------------------------------------------------------------|

Playing                   enemy                   This is thought..... control



CHORUS

|-------------------5-7----------------------------------0---------0--0------------------|
|-------7-8-------5----------7--8-7-----5h7p5--------0h3-------3h4----0------------------|
|-----9---------7----------9------------------7-----------------------0------------------|
|---9---------7----------9------------7------------0---------0--------2------------------|
|-7-------------------------------- 5------------2---------2----------2------------------|
|---------------------------------------------------------------------0------------------|


|-----------------------------------0-0--0-------8-7-----5h7p5--------------------0------|
|-------8-7------5h7p5----------7-8-7-8-10-----8-------5-------8-----7h8p7--------0------|
|-----9----------------7--9-7-9-0-0----------9---------------------9-------9p7h9--0------|
|---9----------7----------0-0-0------------9---------7-----------9----------------x------|
|-7----------5--------------------------------------------------------------------7------|
|---------------------------------------------------------------------------------0------|

You’re a greasy little thing
You’ll scream before you sing
And you make a lot of noise
You lied about everything
You greasy little thing



|-----------------------------------------------------------------------------------------|
|-13----------13----------13----13----------13----------13----13----------13--------------|
|-----16----------16----------------16----------16----------------16----------16----------|
|---------14----------14----------------14----------14----------------14----------14-\----|
|-----------------------------------------------------------------------------------------|
|-----------------------------------------------------------------------------------------|


VERSE

Riff A 2x

I got with the program       
I tried to fall in line


Riff B 2x

I wish I was drowning        Then I could watch you burn
They’ve taken everything  Hung us out to dry  They’ve taken every thing  Now you’re. . .


CHORUS

You’re a sneaky little thing
You’ll scream before you sing
And you make a lot of noise
You lied about everything
You sneaky little thing



INTERLUDE         
                      (5x)
|-------------------------|-------------------------|-------------------------|
|----13-------13-------13-|----15-------15-------15-|----16-------16-------16-|
|-------16-------16-------|-------16-------16-------|-------19-------19-------|
|-14-------14-------14----|-14-------14-------14----|-17-------17-------17----|
|-------------------------|-------------------------|-------------------------|
|-------------------------|-------------------------|-------------------------|


|-------------------------|-------------------------|-------------------------|
|----18-------18-------18-|----16-------16-------16-|----16----------16-------|
|-------19-------19-------|-------19-------19-------|-------19----------15\14-|
|-17-------17-------17----|-17-------17-------17----|-17-------17-16----------|
|-------------------------|-------------------------|-------------------------|
|-------------------------|-------------------------|-------------------------|


|----10-------10-------10-|----13-------13-------13-|-------------------------|
|-------11-------11-------|-------15-------15-------|----11-------11-------11-|
|-12-------12-------12----|-15-------15-------15----|-------12-------12-------|
|-------------------------|-------------------------|-13-------13-------13----|
|-------------------------|-------------------------|-------------------------|
|-------------------------|-------------------------|-------------------------|

|-------------------------|-------------------------|-------------------------|
|----11----------10-------|----13-------13-------13-|----15-------15-------15-|
|-------12----------11----|-------16-------16-------|-------16-------16-------|
|-13-------13-12-------12-|-14-------14-------14----|-14-------14-------14----|
|-------------------------|-------------------------|-------------------------|
|-------------------------|-------------------------|-------------------------|


|-------------------------|-----7--------7--------7-|----10-------10-------10-|
|----13----------13-------|--------8--------8-------|-------12-------12-------|
|-------16----------12\11-|--9--------9--------9----|-12-------12-------12----|
|-14-------14-13----------|-------------------------|-------------------------|
|-------------------------|-------------------------|-------------------------|
|-------------------------|-------------------------|-------------------------|


|-------------------------|-------------------------|
|-----8--------8--------8-|-----8-----------7-------|
|--------9--------9-------|--------9-----------8----|
|-10-------10-------10----|-10-------10--9--------9-|
|-------------------------|-------------------------|
|-------------------------|-------------------------|

When the tide rolls in
When the trapdoor starts to swing
When the swans have sung
I’ll be myself again



|--------------------------------------------------------------------------------|
|-10/12-----10h12p10\8-10-10br----p8\7-8-----------------------------------------|
|-----------------------------------------9b-------------11b--9h11p9-8-----------|
|--------------------------------------------------------------------------------|
|--------------------------------------------------------------------------------|
|--------------------------------------------------------------------------------|


|--------------------------------------------------------------------------------|
|-10/12-----10h12p10\8-10-10br----p8\7-8-----------------------------------------|
|-----------------------------------------9b-9b-9b-9b----11b--9h11p9-8-----------|
|--------------------------------------------------------------------------------|
|--------------------------------------------------------------------------------|
|--------------------------------------------------------------------------------|


|----------------------------------------------------------------|
|-17-15---17------15--------------17-15---17---------------------|
|------------16------12---14-----------------16--14-12h14p12-11--|
|----------------------------14----------------------------------|
|----------------------------------------------------------------|
|----------------------------------------------------------------|


|----------------------------------------------------------------|
|-17-15---17------15----------------------12-13------------------|
|------------16------12---14------12-14-----------12-11----------|
|----------------------------14----------------------------------|
|----------------------------------------------------------------|
|----------------------------------------------------------------|


|--------------------------------|
|-17-15---17------15-------------|
|------------16------12---14-----|
|----------------------------14--|
|--------------------------------|
|--------------------------------|

|----------------------------------------------------|
|----------------------------------------------------|
|----------------------------------------------------|
|----------------------------------------------------|
|----------------------------------------------------|
|-0-10-12--0-15-17p0-19p0-17p0-15p0-17p0--0-12-12-12-|


|---------------------------------------------------------------------------12-|
|-17-15---17------15--------------17-15---17------------------------0h12h15----|
|------------16------12---14-----------------16--16---------0h12h14------------|
|----------------------------14---------------------0h12h14--------------------|
|------------------------------------------------------------------------------|
|------------------------------------------------------------------------------|


************************************

| /   slide up
| \   slide down
| h   hammer-on
| p   pull-off
| ~   vibrato
| +   harmonic
| x   Mute note
| b   Bend
| pb  Pre-bend
| br  Bend release
| pbr Pre-bend release
| brb Bend release bend

************************************

            
            
Suggest correction
Creating personal tab
Creating personal tab
You can edit any tab online and save it as your Personal.

You can edit, replace or remove any tab part or add personal notes – all changes will be seen only by you.

Personal tabs can be accessed anytime from any device, even offline.
Learn more »
comments
print report bad tab
guest
You may want to rate the tab now too:
select rating
Wanna post a correction for this tab? Suggest correction