Oops, an error
Loading. Please wait.

Take My Bones Away tab

version 1
version 1

Whole song

12,532 views 72 this week
9 commentsread comments
1 2 3 4 5
x 5
add to favorites
×
Save as Personal and add changes to this tab that will be seen only by you. Learn more ›
×
You can save this tab as Personal to edit and correct it or add notes. All changes will be seen only by you. Learn more »
launch autoscroll
font size
0
reset
how to read this tab
guitar tuner
edit
Autoscroll
slow
fast
+/-
esc
set tempo
stop
-------------------------------------------------------------------------------
                             TAKE MY BONES AWAY - Baroness
-------------------------------------------------------------------------------
Tabbed by: smygan
E-mail: smygan@gmail.com

Tuning: Drop B BF#BEG#C#


[Riff A1]

C#|------------------------------------------------------------|
G#|------------------------------------------------------------|
E |------------------------------------------------------------|
B |-------------0--12--15-------------0--12--15----------------|
F#|----------------------------------------------12\10---------|
B |--0--12--15-------------0--12--15--------------------10/12--|


[Riff A2]                                              

C#|----------------------------------------------------------|
G#|----------------------------------------------------------|
E |----------------------------------------------------------|
B |-------------0--12--15-------------0--12--15--------------|
F#|----------------------------------------------12--15--12--|
B |--0--12--15-------------0--12--15-------------------------|

 
[Riff A1 + Riff A2]
                  
                You lead the way

[Riff B]

C#|------------------------------------------------|
G#|------------------------------------------------|
E |------------------------------------------------|
B |--10-10-10-10-10-10-10-10-10-10-10-10-10--12----|
F#|---8--8--8--8--8--8--8--8--8--8--8--8--8--10----|
B |------------------------------------------------|

                I'll follow


[Riff A2]

[Riff A1 + A2 + B]

                You lead the way, I'll follow


C#|--------------------------------------------------|
G#|--------------------------------------------------|
E |-----------------------------------10-12\14-------|
B |--7--7-----7-----7--7-----7--10-12----------------|
F#|--5--5-----5-----5--5-----5-----------------------|
B |--0--0--X--0--0--0--0--X--0-----------------------|


[Verse]

GUITAR 1 (BAIZLEY)

C#|------------------------------------------|
G#|------------------------------------------|
E |------------------------------------------|
B |--12--------------10--------10------------|
F#|--12--(16x)-------10--(8x)--10--(8x)------|
B |--12--------------10---------9------------|

GUITAR 2 (ADAMS) PLAYS SOMETHING LIKE THIS OVER THE VERSE

C#|-------------------------------------------------------------12----13----12----------12----13-|
G#|----13-15-13-15-13-15-------13-15-13-15-13-15-13----13-15-13----13----13----13-15-13----13----|
E |-14-------------------12-14----------------------14-------------------------------------------|
B |----------------------------------------------------------------------------------------------|
F#|----------------------------------------------------------------------------------------------|
B |----------------------------------------------------------------------------------------------|

              What was the plan here? I can't seem to stop!
              Pissing and spitting from bottom to top


Guitar 1
C#|------------------------------------------|
G#|------------------------------------------|
E |------------------------------------------|
B |--12--------------10--------10------------|
F#|--12--(16x)-------10--(8x)--10--(8x)------|
B |--12--------------10---------9------------|

Guitar 2
C#|-------------------------------------------------------------12----13----12----------12----13-|
G#|----13-15-13-15-13-15-------13-15-13-15-13-15-13----13-15-13----13----13----13-15-13----13----|
E |-14-------------------12-14----------------------14-------------------------------------------|
B |----------------------------------------------------------------------------------------------|
F#|----------------------------------------------------------------------------------------------|
B |----------------------------------------------------------------------------------------------|

              Picking up viscera, tendons and broken remains


Guitar 1
C#|--------------------------------------------------------------------------------------------------|
G#|--------------------------------------------------------------------------------------------------|
E |--------------------------------------------------------------------------------------------------|
B |--12----12--12--12--12--12----12----12--12--12--12--12---10----10--10--10--10--10----5--5----5--5-|
F#|--12----12--12--12--12--12----12----12--12--12--12--12---10----10--10--10--10--10----5--5----5--5-|
B |--12----12--12--12--12--12----12----12--12--12--12--12---10----10--10--10--10--10----5--5----5--5-|

Guitar 2
C#|-------------10------------------------------------------10----------10-------10---------|
G#|-------10-------13-10-13---15p13----15p13----------10-------13-10-13----13p10----13p10---|
E |----10----10---------------------14-------14----10----10---------------------------------|
B |-12------------------------------------------10------------------------------------------|
F#|-----------------------------------------------------------------------------------------|
B |-----------------------------------------------------------------------------------------|

               Did you find another way? Was it my turn, or yours, to say?


Guitar 1
C#|--------------------------------------------------------------------------------------------------|
G#|--------------------------------------------------------------------------------------------------|
E |--------------------------------------------------------------------------------------------------|
B |--12----12--12--12--12--12----12----12--12--12--12--12---10----10--10--10--10--10---10-10----5--5-|
F#|--12----12--12--12--12--12----12----12--12--12--12--12---10----10--10--10--10--10---10-10----5--5-|
B |--12----12--12--12--12--12----12----12--12--12--12--12---10----10--10--10--10--10----9--9----5--5-|

Guitar 2
C#|-------------10------------------------------------------10----------10-------10---------|
G#|-------10-------13-10-13---15p13----15p13----------10-------13-10-13----13-------13------|
E |----10----10---------------------14-------14----10----10---------------------------------|
B |-12------------------------------------------10------------------------------------------|
F#|-----------------------------------------------------------------------------------------|
B |-----------------------------------------------------------------------------------------|

                Did you find another way?


[Riff C]

C#|------------------------------------------------------------------------------|
G#|------------------------------------------------------------------------------|
E |------------------------------------------------------------------------------|
B |-10-10--10-10-10--10-10-10--10-10-10--10-10-10--10-10-10--10------------------|
F#|--8--8---8--8--8---8--8--8---8--8--8---8--7--7---7--7--7---7-10-10--10-10-10--|
B |-------------------------------------------------------------10-10--10--9--9--|

C#|------------------------------------------------------------------------------|
G#|------------------------------------------------------------------------------|
E |------------------------------------------------------------------------------|
B |-10-10--10-10-10--10-10-10--10-10-10--10-10-10--10-10-10--10------------------|
F#|--8--8---8--8--8---8--8--8---8--8--8---8--7--7---7--7--7---7-10-10--10-10-10--|
B |-------------------------------------------------------------10-10--10--9--9--|


[Chorus]

C#|-------------------------------------------------------------------------------------|
G#|-------------------------------------------------------------------------------------|
E |-------------------------------------------------------------------------------------| 
B |--3--3--3--3--3--3--3--3--3--3--3--3--3--3---7--7--7--7--7--7--7--10-10-10-10-10-10--|
F#|--3--3--3--3--3--3--3--3--3--3--3--3--3--3---7--7--7--7--7--7--7--10-10-10-10-10-10--|
B |--3--3--3--3--3--3--3--3--3--3--3--3--3--3---7--7--7--7--7--7--7--10-10-10--9--9--9--|

                Take my bones away


[Chorus Riff]

                I'll find 'em everyday! 



(something like this, similar to intro riff)

C#|----------------------------------------------------------------|
G#|----------------------------------------------------------------|
E |---------------------------14--17---------------------10-12-14--|
B |-------------0--12--15-------------0--12--15----10-12-----------|
F#|----------------------------------------------------------------|
B |--0--12--15-------------0---------------------0-----------------|


[Verse]
                I took your advice and the requisite pills
                And forbidden pies from a white windowsill
                Swallowing caveats, Baphomet's breath and migraines

                Did I tell you "don't come home"?
                Why was your mouth not beginning to foam? 
                Did I tell you "don't come home"?

[Riff C]

[Chorus]
                Take my bones away
                I'll find 'em everyday


C#|--------------------5-6-8brb--6-5--6----5------------------|
G#|----------------6-8------------------8----6--8-5--6-5------|
E |------------5-7---------------------------------------7----|
B |-0------5-7------------------------------------------------|
F#|-0--7-8----------------------------------------------------|
B |-0---------------------------------------------------------|


C#|--------------------5-6-8brb--6-5--6----5------------------|
G#|----------------6-8------------------8----6--8-(8)---------|
E |------------5-7--------------------------------------------|
B |-0------5-7------------------------------------------------|
F#|-0--7-8----------------------------------------------------|
B |-0---------------------------------------------------------|


C#|---------------------------------------------------------|
G#|---------------------------------------------------------|
E |---------------------------------------------------------|
B |-7-x-7-8-x-8-10-x-10-12-x-12-7-7---------5---------7-----|
F#|-5-x-5-6-x-6--8-x--8-10-x-10-5-5--strum--3--strum--5--0--|
B |------------------------------------------------------0--|


C#|---------------------------------------------------------|
G#|---------------------------------------------------------|
E |---------------5-7-9-10-12----10-10---9-9---10-10-/-7----|
B |--------5-7-8--------------------------------------------|
F#|--5-7-8--------------------------------------------------|
B |---------------------------------------------------------|


   (again something similar to intro riff)
C#|----------------------------------------------------------|
G#|----------------------------------------------------------|
E |----------------------------------------------------------|
B |-------------0--12--0--12--15-----------------------------|
F#|---------------------------------15--0--12--15------------|
B |--0--12--15-------------------0----------------0--12--15--|

C#|----------------------------------------------------------|
G#|----------------------------------------------------------|
E |----------------------------------------------------------|
B |-------------0--12--0--12--15-----------------------------|
F#|---------------------------------15----0--12--15--12------|
B |--0--12--15-------------------0------0--------------------|


  (x6)
C#|--------------------------------------------------------------------------|
G#|--------------------------------------------------------------------------|
E |--------------------------------------------------------------------------|
B |--------------------------------------------------------------------------|
F#|--10--12-12--12-12-12--12-12--12-12-10--12-12--12-12-12--12-12--12-12-12--|
B |--10--12-12--12-12-12--12-12--12-12-10--12-12--12-12-12--12-12--12-12-12--| CONT'D...

C#|       |---------------------------------------------------|
G#|       |---------------------------------------------------|
E |       |---------------------------------------------------|
B |       |---------------------------------------------------|
F#|       |--10-10-10-10-10-10-10-10-10-10-10-10-10-10-10-10--|
B |    ...|--10-10-10-10-10-10-10-10--9--9--9--9--9--9--9--9--|


[Riff C] (x6)
C#|------------------------------------------------------------------------------|
G#|------------------------------------------------------------------------------|
E |------------------------------------------------------------------------------|
B |-10-10--10-10-10--10-10-10--10-10-10--10-10-10--10-10-10--10------------------|
F#|--8--8---8--8--8---8--8--8---8--8--8---8--7--7---7--7--7---7-10-10--10-10-10--|
B |-------------------------------------------------------------10-10--10--9--9--|

                  Take My Bones Away!


[Ending Riff] (x5)

C#|---------------------------------------------|
G#|---------------------------------------------|
E |---------------------------------------------|
B |--14---12---10-----10-12--9-----10--7--------|
F#|--15---14---12-----12-14-10-----12--9--------|
B |---------------------------------------------|



************************************

| \  Slide down
| /  Slide up
| p  Pull-off
| x  Dead note

************************************

            
            
Suggest correction
Creating personal tab
Creating personal tab
You can edit any tab online and save it as your Personal.

You can edit, replace or remove any tab part or add personal notes – all changes will be seen only by you.

Personal tabs can be accessed anytime from any device, even offline.
Learn more »
comments
print report bad tab
9 comments total. Showing first comments.
0 reply
av0n 125 Sep 22, 2014 06:02 AM

Awesome. Will there be more Baroness Tabs from you?

0 reply
klykovnd 42 Sep 25, 2014 03:19 PM

accurate tab, but tuning must be Drop C, imo. waiting you to tab Sea Lungs.

0 reply
smygan 109 Sep 29, 2014 08:09 AM, edited on September 30 2014, 12:03 am

comment removed

guest
You may want to rate the tab now too:
select rating
Wanna post a correction for this tab? Suggest correction