Oops, an error
Loading. Please wait.

Last Of The Big Game Hunters tab

version 2
version 2

Whole song

285 views 1 this week
no commentswrite comment
1 2 3 4 5
3 more votes to show rating
add to favorites
×
Save as Personal and add changes to this tab that will be seen only by you. Learn more ›
×
You can save this tab as Personal to edit and correct it or add notes. All changes will be seen only by you. Learn more »
launch autoscroll
font size
0
reset
how to read this tab
guitar tuner
edit
Autoscroll
slow
fast
+/-
esc
set tempo
stop
Author
Difficulty
The Last of the Big Game Hunters
Barstool Prophets
The Last of the Big Game Hunters (1997)

The Last of the Big Game Hunters:  written by Graham Greer, Glenn Forrester,
Al Morier, and Bobby Tamas

GTR I - Standard Tuning "Graham Greer" (e,B,G,D,A,E)
GTR II - Standard Tuning "Al Morier" (e,B,G,D,A,E)

Intro

  GTR I
e|-------------------------------------------------|
B|-------------------------------------------------|
G|-----5--------5--------5-------------------------|
D|--2--5-----2--5-----2--5-------------------------|
A|--0--3-----0--3-----0--3-------------------------|
E|-------------------------------------------------|

  GTR I
e|-------------------------------------------------|
B|-------------------------------------------------|
G|-----5--------5--------5-------------------------|
D|--2--5-----2--5-----2--5-------------------------|
A|--0--3-----0--3-----0--3-------------------------|
E|-------------------------------------------------|

Main Riff

  GTR I
e|-------------------------------------------------|
B|-----------------------------5--5--5--5--5--5--5-|
G|-----5--------5--------5-------------------------|
D|--2--5-----2--5-----2--5-------------------------|
A|--0--3-----0--3-----0--3-------------------------|
E|-------------------------------------------------|
 |                             .  .  .  .  
 |GTR II
e|-------------------------------------------------|
B|----------------------------/8--8--8--8--8--8--8-|
G|-----5--------5--------5----/9--9--9--9--9--9--9-|
D|--2--5-----2--5-----2--5-------------------------|
A|--0--3-----0--3-----0--3-------------------------|
E|-------------------------------------------------|

  GTR I
e|-------------------------------------------------|
B|-----------------------------4--4--4--4--4--4--4-|
G|-----5--------5--------5-------------------------|
D|--2--5-----2--5-----2--5-------------------------|
A|--0--3-----0--3-----0--3-------------------------|
E|-------------------------------------------------|
 |                             .  .  .  .  
 |GTR II
e|-------------------------------------------------|
B|----------------------------/7--7--7--7--7--7--7-|
G|-----5--------5--------5----/8--8--8--8--8--8--8-|
D|--2--5-----2--5-----2--5-------------------------|
A|--0--3-----0--3-----0--3-------------------------|
E|-------------------------------------------------|

  GTR I
e|-------------------------------------------------|
B|-----------------------------3--3--3--3--3--3--3-|
G|-----5--------5--------5-------------------------|
D|--2--5-----2--5-----2--5-------------------------|
A|--0--3-----0--3-----0--3-------------------------|
E|-------------------------------------------------|
 |                             .  .  .  .  
 |GTR II
e|-------------------------------------------------|
B|----------------------------/6--6--6--6--6--6--6-|
G|-----5--------5--------5----/7--7--7--7--7--7--7-|
D|--2--5-----2--5-----2--5-------------------------|
A|--0--3-----0--3-----0--3-------------------------|
E|-------------------------------------------------|

  GTR I
e|-------------------------------------------------|
B|-------------------------------------------------|
G|-----5--------5--------5-----5--5--5--5----------|
D|--2--5-----2--5-----2--5-------------------------|
A|--0--3-----0--3-----0--3-------------------------|
E|-------------------------------------------------|
 |                             .  .  .     
 |GTR II
e|-------------------------------------------------|
B|----------------------------/5--5--5--5----------|
G|-----5--------5--------5----/5--5--5--5----------|
D|--2--5-----2--5-----2--5-------------------------|
A|--0--3-----0--3-----0--3-------------------------|
E|-------------------------------------------------|

Verse

  GTR I
e|-------------------------------------------------|
B|-------------------------------------------------|
G|-------------------------------------------------|
D|--------------------------------------0-----2----|
A|--0--3-----0--3-----0--3-----0--3--0-------------|
E|-------------------------------------------------|
    .  .     .  .     .  .     .  .  .  .     .

  GTR I
e|-------------------------------------------------|
B|-------------------------------------------------|
G|-------------------------------------------------|
D|-------------------------------------------------|
A|--0--3-----0--3-----0--3-------------------------|
E|-------------------------------------------------|
    .  .     .  .     .  .                     

  GTR I
e|-------------------------------------------------|
B|-------------------------------------------------|
G|-------------------------------------------------|
D|--------------------------------------0-----2----|
A|--0--3-----0--3-----0--3-----0--3--0-------------|
E|-------------------------------------------------|
    .  .     .  .     .  .     .  .  .  .     .

  GTR I
e|-------------------------------------------------|
B|-------------------------------------------------|
G|-------------------------------------------------|
D|-------------------------------------------------|
A|--0--3-----0--3-----0--3-------------------------|
E|-------------------------------------------------|
    .  .     .  .     .  .                     

Verse 2

  GTR I
e|-------------------------------------------------|
B|-------------------------------------------------|
G|-------------------------------------------------|
D|--------------------------------------0-----2----|
A|--0--3-----0--3-----0--3-----0--3--0-------------|
E|-------------------------------------------------|
 |  .  .     .  .     .  .     .  .  .  .      
 |GTR II
e|-------------------------------------------------|
B|--8--8--8--8--8--8--8--8\------------------------|
G|--9--9--9--9--9--9--9--9\------------------------|
D|-------------------------------------------------|
A|-------------------------------------------------|
E|-------------------------------------------------|
    .  .  .  .  .

  GTR I
e|-------------------------------------------------|
B|-------------------------------------------------|
G|-------------------------------------------------|
D|--------------------------------------0-----2----|
A|--0--3-----0--3-----0--3-----0--3--0-------------|
E|-------------------------------------------------|
 |  .  .     .  .     .  .     .  .  .     
 |GTR II
e|-------------------------------------------------|
B|--7--7--7--7--7--7--7--7\------------------------|
G|--8--8--8--8--8--8--8--8\------------------------|
D|-------------------------------------------------|
A|-------------------------------------------------|
E|-------------------------------------------------|
    .  .  .  .  .

  GTR I
e|-------------------------------------------------|
B|-------------------------------------------------|
G|-------------------------------------------------|
D|--------------------------------------0-----2----|
A|--0--3-----0--3-----0--3-----0--3--0-------------|
E|-------------------------------------------------|
 |
 |GTR II
e|-------------------------------------------------|
B|--6--6--6--6--6--6--6--6\------------------------|
G|--7--7--7--7--7--7--7--7\------------------------|
D|-------------------------------------------------|
A|-------------------------------------------------|
E|-------------------------------------------------|
    .  .  .  .  .
                                               
  GTR I
e|-------------------------------------------------|
B|-------------------------------------------------|
G|-----5--------5--------5-------------------------|
D|--2--5-----2--5-----2--5-------------------------|
A|--0--3-----0--3-----0--3-------------------------|
E|-------------------------------------------------|
 |
 |GTR II
e|-------------------------------------------------|
B|--5--5--5--5--5--5--5--5\------------------------|
G|--5--5--5--5--5--5--5--5\------------------------|
D|-------------------------------------------------|
A|-------------------------------------------------|
E|-------------------------------------------------|
    .  .  .  .  .

Chorus

  GTR I
e|-------------------------------------------------|
B|-------------------------10----------------------|
G|--2-----------------------9----------------------|
D|--2----------------------------------------------|
A|--0----------------------------------------------|
E|--------------------------------------8b---------|
 |
 |GTR II
e|-------------------------------------------------|
B|-------------------------------------------------|
G|--2-----------------------2----------------------|
D|--2-----------------------2----------------------|
A|--0-----------------------0-----------3b---------|
E|-------------------------------------------------|

  GTR I
e|-------------------------------------------------|
B|-------------------------------------10----------|
G|--------------------------------------9----------|
D|--5-----------------------3----------------------|
A|--5-----------------------3----------------------|
E|--3--------------------0--1----------------------|
 |
 |GTR II
e|-------------------------------------------------|
B|-------------------------------------------------|
G|-------------------------------------------------|
D|--5-----------------------3----------------------|
A|--5-----------------------3-----------3b---------|
E|--3--------------------0--1----------------------|

Post Chorus

  GTR I
e|-------------------------------------------------|
B|-----------------------------5--5--5--5--5--5--5-|
G|-----5--------5--------5-------------------------|
D|--2--5-----2--5-----2--5-------------------------|
A|--0--3-----0--3-----0--3-------------------------|
E|-------------------------------------------------|
 |                                         
 |GTR II
e|-------------------------------------------------|
B|----------------------------/8--8--8--8--8--8--8-|
G|-----5--------5--------5----/9--9--9--9--9--9--9-|
D|--2--5-----2--5-----2--5-------------------------|
A|--0--3-----0--3-----0--3-------------------------|
E|-------------------------------------------------|

  GTR I
e|-------------------------------------------------|
B|-----------------------------4--4--4--4--4--4--4-|
G|-----5--------5--------5-------------------------|
D|--2--5-----2--5-----2--5-------------------------|
A|--0--3-----0--3-----0--3-------------------------|
E|-------------------------------------------------|
 |                                         
 |GTR II
e|-------------------------------------------------|
B|----------------------------/7--7--7--7--7--7--7-|
G|-----5--------5--------5----/8--8--8--8--8--8--8-|
D|--2--5-----2--5-----2--5-------------------------|
A|--0--3-----0--3-----0--3-------------------------|
E|-------------------------------------------------|

  GTR I
e|-------------------------------------------------|
B|-----------------------------3--3--3--3--3--3--3-|
G|-----5--------5--------5-------------------------|
D|--2--5-----2--5-----2--5-------------------------|
A|--0--3-----0--3-----0--3-------------------------|
E|-------------------------------------------------|
 |                                         
 |GTR II
e|-------------------------------------------------|
B|----------------------------/6--6--6--6--6--6--6-|
G|-----5--------5--------5----/7--7--7--7--7--7--7-|
D|--2--5-----2--5-----2--5-------------------------|
A|--0--3-----0--3-----0--3-------------------------|
E|-------------------------------------------------|

  GTR I
e|-------------------------------------------------|
B|-------------------------------------------------|
G|-----5--------5--------5-----5--5--5--5----------|
D|--2--5-----2--5-----2--5-------------------------|
A|--0--3-----0--3-----0--3-------------------------|
E|-------------------------------------------------|
 |                                         
 |GTR II
e|-------------------------------------------------|
B|----------------------------/5--5--5--5----------|
G|-----5--------5--------5----/5--5--5--5----------|
D|--2--5-----2--5-----2--5-------------------------|
A|--0--3-----0--3-----0--3-------------------------|
E|-------------------------------------------------|

Verse       - 1x
Verse 2     - 1x
Chorus      - 2x
Post Chorus - 1x
Verse       - 1x

Verse 3

  GTR I
e|-------------------------------------------------|
B|-------------------------------------------------|
G|-------------------------------------------------|
D|--------------------------------------0-----2----|
A|--0--3-----0--3-----0--3-----0--3--0-------------|
E|-------------------------------------------------|
 |  .  .     .  .     .  .     .  .  .  .      
 |GTR II
e|-------------------------------------------------|
B|--8-----8-----8-----8-----8-----8-----8-----8----|
G|--9-----9-----9-----9-----9-----9-----9-----9----|
D|-------------------------------------------------|
A|-------------------------------------------------|
E|-------------------------------------------------|
    .     .     .     .     .     .     .     .

  GTR I
e|-------------------------------------------------|
B|-------------------------------------------------|
G|-------------------------------------------------|
D|--------------------------------------0-----2----|
A|--0--3-----0--3-----0--3-----0--3--0-------------|
E|-------------------------------------------------|
 |  .  .     .  .     .  .     .  .  .     
 |GTR II
e|-------------------------------------------------|
B|--7-----7-----7-----7-----7-----7-----7-----7----|
G|--8-----8-----8-----8-----8-----8-----8-----8----|
D|-------------------------------------------------|
A|-------------------------------------------------|
E|-------------------------------------------------|
    .     .     .     .     .     .     .     .

  GTR I
e|-------------------------------------------------|
B|-------------------------------------------------|
G|-------------------------------------------------|
D|--------------------------------------0-----2----|
A|--0--3-----0--3-----0--3-----0--3--0-------------|
E|-------------------------------------------------|
 |
 |GTR II
e|-------------------------------------------------|
B|--6-----6-----6-----6-----6-----6-----6-----6----|
G|--7-----7-----7-----7-----7-----7-----7-----7----|
D|-------------------------------------------------|
A|-------------------------------------------------|
E|-------------------------------------------------|
    .     .     .     .     .                   
                                               
  GTR I
e|-------------------------------------------------|
B|-------------------------------------------------|
G|-----5--------5--------5-------------------------|
D|--2--5-----2--5-----2--5-------------------------|
A|--0--3-----0--3-----0--3-------------------------|
E|-------------------------------------------------|
 |
 |GTR II
e|-------------------------------------------------|
B|--5-----5-----5-----5-----5----------------------|
G|--5-----5-----5-----5-----5----------------------|
D|-------------------------------------------------|
A|-------------------------------------------------|
E|-------------------------------------------------|

Chorus 2

  GTR I
e|-------------------------------------------------|
B|-------------------------10----------------------|
G|--2-----------------------9----------------------|
D|--2----------------------------------------------|
A|--0----------------------------------------------|
E|--------------------------------------8b---------|
 |
 |GTR II
e|-------------------------------------------------|
B|-------------------------------------------------|
G|--2-----------------------2----------------------|
D|--2-----------------------2----------------------|
A|--0-----------------------0-----------3b---------|
E|-------------------------------------------------|

  GTR I,II
e|-------------------------------------------------|
B|-------------------------------------------------|
G|--------------------------------------4-----5----|
D|--5-----------------------3-----------4-----5----|
A|--5-----------------------3-----------2-----3----|
E|--3--------------------0--1--------0--2-----3----|

Chorus 2
Chorus

Outro

  GTR I
e|-------------------------------------------------|
B|-------------------------------------------------|
G|-----5--------5--------5-------------------------|
D|-----5--------5--------5--------------------x--x-|
A|--0--3-----0--3-----0--3--------------------x--x-|
E|--0--3-----0--3-----0--3--------------------x--x-|
 |                                         
 |GTR II
e|-------------------------------------------------|
B|----------------------------/8--8--8--8--8--8--8-|
G|-----5--------5--------5----/9--9--9--9--9--9--9-|
D|--2--5-----2--5-----2--5-------------------------|
A|--0--3-----0--3-----0--3-------------------------|
E|-------------------------------------------------|

  GTR I
e|-------------------------------------------------|
B|-------------------------------------------------|
G|-----5--------5--------5-------------------------|
D|-----5--------5--------5--------------------x--x-|
A|--0--3-----0--3-----0--3--------------------x--x-|
E|--0--3-----0--3-----0--3--------------------x--x-|
 |                                         
 |GTR II
e|-------------------------------------------------|
B|----------------------------/7--7--7--7--7--7--7-|
G|-----5--------5--------5----/8--8--8--8--8--8--8-|
D|--2--5-----2--5-----2--5-------------------------|
A|--0--3-----0--3-----0--3-------------------------|
E|-------------------------------------------------|

  GTR I
e|-------------------------------------------------|
B|-------------------------------------------------|
G|-----5--------5--------5-------------------------|
D|-----5--------5--------5--------------------x--x-|
A|--0--3-----0--3-----0--3--------------------x--x-|
E|--0--3-----0--3-----0--3--------------------x--x-|
 |                                         
 |GTR II
e|-------------------------------------------------|
B|----------------------------/6--6--6--6--6--6--6-|
G|-----5--------5--------5----/7--7--7--7--7--7--7-|
D|--2--5-----2--5-----2--5-------------------------|
A|--0--3-----0--3-----0--3-------------------------|
E|-------------------------------------------------|

  GTR I
e|-------------------------------------------------|
B|-------------------------------------------------|
G|-----5--------5--------5-------------------------|
D|-----5--------5--------5--------------------x--x-|
A|--0--3-----0--3-----0--3--------------------x--x-|
E|--0--3-----0--3-----0--3--------------------x--x-|
 |                                         
 |GTR II
e|-------------------------------------------------|
B|----------------------------/5--5--5--5--5--5--5-|
G|-----5--------5--------5----/5--5--5--5--5--5--5-|
D|--2--5-----2--5-----2--5-------------------------|
A|--0--3-----0--3-----0--3-------------------------|
E|-------------------------------------------------|

  GTR I
e|-------------------------------------------------|
B|-------------------------------------------------|
G|-----5--------5--------5-------------------------|
D|-----5--------5--------5--------------------x--x-|
A|--0--3-----0--3-----0--3--------------------x--x-|
E|--0--3-----0--3-----0--3--------------------x--x-|
 |                                         
 |GTR II
e|-------------------------------------------------|
B|----------------------------/8--8--8--8--8--8--8-|
G|-----5--------5--------5----/9--9--9--9--9--9--9-|
D|--2--5-----2--5-----2--5-------------------------|
A|--0--3-----0--3-----0--3-------------------------|
E|-------------------------------------------------|

  GTR I
e|-------------------------------------------------|
B|-------------------------------------------------|
G|-----5--------5--------5-------------------------|
D|-----5--------5--------5--------------------x--x-|
A|--0--3-----0--3-----0--3--------------------x--x-|
E|--0--3-----0--3-----0--3--------------------x--x-|
 |                                         
 |GTR II
e|-------------------------------------------------|
B|----------------------------/7--7--7--7--7--7--7-|
G|-----5--------5--------5----/8--8--8--8--8--8--8-|
D|--2--5-----2--5-----2--5-------------------------|
A|--0--3-----0--3-----0--3-------------------------|
E|-------------------------------------------------|

  GTR I
e|-------------------------------------------------|
B|-------------------------------------------------|
G|-----5--------5--------5-------------------------|
D|-----5--------5--------5--------------------x--x-|
A|--0--3-----0--3-----0--3--------------------x--x-|
E|--0--3-----0--3-----0--3--------------------x--x-|
 |                                         
 |GTR II
e|-------------------------------------------------|
B|----------------------------/6--6--6--6--6--6--6-|
G|-----5--------5--------5----/7--7--7--7--7--7--7-|
D|--2--5-----2--5-----2--5-------------------------|
A|--0--3-----0--3-----0--3-------------------------|
E|-------------------------------------------------|

  GTR I
e|-------------------------------------------------|
B|-------------------------------------------------|
G|-----5--------5--------5\------------------------|
D|-----5--------5--------5\------------------------|
A|--0--3-----0--3-----0--3\------------------------|
E|--0--3-----0--3-----0--3\------------------------|
 |                                         
 |GTR II
e|-------------------------------------------------|
B|-------------------------------------------------|
G|-----5--------5--------5\------------------------|
D|--2--5-----2--5-----2--5\------------------------|
A|--0--3-----0--3-----0--3\------------------------|
E|-------------------------------------------------|


| b  bend
| r  release bend
|trp triplet
|PH. pinch harmonic
|fbk feedback
| .  palm-mute
| /  slide up
| \  slide down
| h  hammer-on
| p  pull-off
| ~  vibrato
|(7) harmonic
| x  Mute note
===============================================================================


            
            
Suggest correction
Creating personal tab
Creating personal tab
You can edit any tab online and save it as your Personal.

You can edit, replace or remove any tab part or add personal notes – all changes will be seen only by you.

Personal tabs can be accessed anytime from any device, even offline.
Learn more »
Give kudos to tab author, rate the tab!
1 2 3 4 5
comments
print report bad tab
guest
You may want to rate the tab now too:
select rating
Wanna post a correction for this tab? Suggest correction