Oops, an error
Loading. Please wait.

Cloud tab

version 1
version 1

Whole song

1,483 views 27 this week
1 commentread comment
1 2 3 4 5
x 4
add to favorites
×
Save as Personal and add changes to this tab that will be seen only by you. Learn more ›
×
You can save this tab as Personal to edit and correct it or add notes. All changes will be seen only by you. Learn more »
launch autoscroll
font size
0
reset
how to read this tab
guitar tuner
edit
Autoscroll
slow
fast
+/-
esc
set tempo
stop
-----------------------------------------------------------------
CLOUD - BASEMENT
-----------------------------------------------------------------
Tabbed by:Justin Keys
Email:jmkeys1@gmail.com

Tuning: Half step (Not really half step - The bonus song is half step, but tune the strings half way 
between EbAbDbGbBbeb and EADGBe - Nice lil trick they did) 

INTRO:
eb|------------------------|--------------------------------------|
Bb|------------------------|--------------------------------------|
Gb|----11------11------11--|--------9-------9------9--------------|
Db|------------------------|--------------------------------------|
Ab|------------------------|--------------------------------------|
Eb|-10-----10-------10-----|--7---------7--------7----------------|
                                                                   >This is the intro play this twice.
eb|---------------------------------------------------------------|(Listen to the song and pick these notes 
Bb|---------------------------------------------------------------| accordingly)
Gb|------7---------7---------7------0--2--4--2--------------------|
Db|---------------------------------------------------------------|
Ab|---------------------------------------------------------------|
Eb|-5--------5---------5------------------------------------------|

VERSE:
eb|---------------------------------------------------------------|
Bb|---------------------------------------------------------------|
Gb|-11---9---7------0--2--4--2------------------------------------|  
Db|---------------------------------------------------------------| 
Ab|---------------------------------------------------------------|
Eb|-10---7---5----------------------------------------------------|

or                                                                 >This is the main chunk of the song
                                                                    after the intro. Listen to the song for
eb|---------------------------------------------------------------| the strumming pattern.
Bb|---------------------------------------------------------------|
Gb|-11---9---7---4------------------------------------------------|
Db|---------------------------------------------------------------|
Ab|---------------------------------------------------------------|
Eb|-10---7---5---3------------------------------------------------|

eb|---------------------------------------------------------------|
Bb|---------------------------------------------------------------|
Gb|-11------------------------------------------------------------|>End on this. You can pick or strum this
Db|---------------------------------------------------------------|  - do what ya want.
Ab|---------------------------------------------------------------|
Eb|-10------------------------------------------------------------|

*Basically you play the intro then the main, BUT at the very end of the song
 you play the intro again.* 

| /  slide up
| \  slide down
| h  hammer-on
| p  pull-off
| ~  vibrato
| +  harmonic
| x  Mute note

            
            
Suggest correction
Creating personal tab
Creating personal tab
You can edit any tab online and save it as your Personal.

You can edit, replace or remove any tab part or add personal notes – all changes will be seen only by you.

Personal tabs can be accessed anytime from any device, even offline.
Learn more »
comments
print report bad tab
1 comment total.
+1 reply
crtsrdclff 10 Aug 23, 2017 08:32 AM

I think the intro part is:

eb|------------------------|--------------------------------------|
Bb|------------------------|--------------------------------------|
Gb|---11------11-----------|----9-------9-------------------------|
Db|------0-------0----0----|------0-------0------0----------------|
Ab|------------------------|--------------------------------------|
Eb|-10-----10------10---10-|--6-------6--------6---6--------------|

eb|---------------------------------------------------------------|
Bb|---------------------------------------------------------------|
Gb|------7---------7---------------0--2--4--2---------------------|
Db|--------0---------0------0-------------------------------------|
Ab|---------------------------------------------------------------|
Eb|---7-------7---------7------7----------------------------------|

guest
You may want to rate the tab now too:
select rating
Wanna post a correction for this tab? Suggest correction