Oops, an error
Loading. Please wait.

Pine tab

version 3
version 3

Whole song

Interactive

463 views 9 this week
1 commentread comment
1 2 3 4 5
x 3
add to favorites
×
Save as Personal and add changes to this tab that will be seen only by you. Learn more ›
×
You can save this tab as Personal to edit and correct it or add notes. All changes will be seen only by you. Learn more »
launch autoscroll
font size
0
reset
how to read this tab
guitar tuner
edit
Autoscroll
slow
fast
+/-
esc
set tempo
stop
About this tab version
Solo Re-Written, Different Chords, True Tuning. Was this info helpful? Yes No
Pine - Basement
Tabbed by: CatWithAMustach)

[Instruments]
Guitar I (Lead Guitar) - Eb Dropped Db (C#-G#-C#-F#-A#-D#) or (Db-Ab-Db-Gb-Bb-eb)
Guitar II (Rhythm Guitar) - Eb Dropped Db (C#-G#-C#-F#-A#-D#) or (Db-Ab-Db-Gb-Bb-eb)

Guitar I

  [Intro] (Clean)
D#|--------------------------------------------------------0-------|
A#|--------------9---------7---------------------9---------7-------|
F#|-----------------6------6------------------------6------6-------|
C#|--------7---------------0---------------7---------------0-------|
G#|--0--------0--------0-------------0--------0--------0-----------|
C#|----------------------------------------------------------------|

  [Verse] (Clean)
D#|-----------------------0-----0--0-------0--0--0--x----|
A#|--9-----9-----9--9-----7-----7--7-------7--7--7--x----|
F#|--6-----6-----6--6-----6-----6--6-------6--6--6--x----|
C#|--7-----7-----7--7-----0-----0--0-------0--0--0--x----| x12
G#|--0-----0-----0--0------------------------------------|
C#|------------------------------------------------------|

  [Chorus] (Overdrive)
D#|-----------------------------------------------------------------------------------------------|
A#|-----------------------------------------------------------------------------------------------|
F#|--6b7b6b7b6b7b6-----------------6b7b6b7b6b7b6--------------2h4----6b7b6b7b6b7b6----------------|
C#|-------------------2h4----2/---------------------2h4--2----------------------------2h4----2----|
G#|-----------------------------------------------------------------------------------------------|
C#|-----------------------------------------------------------------------------------------------|

  [Post-Chorus] (Clean)
D#|-----------------------0-----0--0-------0--0--0--|
A#|--9-----------9--9--9--7-----7--7-------7--7--7--|
F#|--6-----------6--6--6--6-----6--6-------6--6--6--|
C#|--7-----------7--7--7--0-----0--0-------0--0--0--|
G#|--0-----------0--0--0----------------------------|
C#|-------------------------------------------------|

D#|-----------------------0-----0--0------0--0--0--x----|
A#|--9-----9-----9--9--9--7-----7--7------7--7--7--x----|
F#|--6-----6-----6--6--6--6-----6--6------6--6--6--x----|
C#|--7-----7-----7--7--7--0-----0--0------0--0--0--x----| x2 (Full Section)
G#|--0-----0-----0--0--0--------------------------------|
C#|-----------------------------------------------------|

  [Second Verse] (Clean)
D#|-----------------------0----0--0--0-----0--0-x--|
A#|--------------9--------7----7--7--7-----7--7-x--|
F#|-----------------6-----6----6--6--6-----6--6-x--|
C#|--------7--------------0----0--0--0-----0--0-x--| x4
G#|--0--------0--------0---------------------------|
C#|------------------------------------------------|

  [Second Chorus] (Overdrive)
D#|-----------------------------------------------------------------------------------------------|
A#|-----------------------------------------------------------------------------------------------|
F#|--6b7b6b7b6b7b6-----------------6b7b6b7b6b7b6--------------2h4----6b7b6b7b6b7b6----------------|
C#|-------------------2h4----2/---------------------2h4--2----------------------------2h4----2----|
G#|-----------------------------------------------------------------------------------------------|
C#|-----------------------------------------------------------------------------------------------|

  [Solo] (OverDrive)
D#|-----------------------------------------------|
A#|-----------------------------------------------|
F#|--4b6--4b6--2---------2h4b6--4b6--4b6b4-2--2/--|
C#|-----------------2h4---------------------------|
G#|-----------------------------------------------|
C#|-----------------------------------------------|

D#|-------------------------------------------------------|
A#|---------------------17--------------------------------|
F#|---------14h16b18----------18pb16----------------------|
C#|--14h16----------------------------14--16----14--------|
G#|-------------------------------------------------------|
C#|-------------------------------------------------------|

D#|-------------------------------------------|
A#|--18pb17-----------------------------------|
F#|------------16--14----------14-------------|
C#|--------------------14--16------16\--------|
G#|-------------------------------------------|
C#|-------------------------------------------|

  [Outro] (Distortion)
D#|-------------------------------------------------------|
A#|-------------------------------------------------------|
F#|--2-----------2--2--2--2-----2--2--2-----2--2--2--2----|
C#|--2-----------2--2--2--2-----2--2--2-----2--2--2--2----|
G#|--0-----------0--0--0--0-----0--0--0-----0--0--0--0----|
C#|-------------------------------------------------------|

D#|-------------------------------------------------------|
A#|-------------------------------------------------------|
F#|-------------------------------------------------------|
C#|--4-----------4--4--4--4-----4--4--4-----4--4--4--4----|
G#|--4-----------4--4--4--4-----4--4--4-----4--4--4--4----|
C#|--4-----------4--4--4--4-----4--4--4-----4--4--4--4----|

D#|----------------------------------------------------------------------|
A#|--3-----3-----3--3--3---------------3-----3-----3--3--3---------------|
F#|--2-----2-----2--2--2--7------------2-----2-----2--2--2--7------------|
C#|--0-----0-----0--0--0--5------------0-----0-----0--0--0--5------------|
G#|-----------------------5---------------------------------5------------|
C#|-----------------------5---------------------------------5------------|


Guitar II
(Rest A Few Bars...)

  [Verse] (Distortion)
D#|------------------------2-----2--2-------2--2--2--2--|
A#|------------------------2-----2--2-------2--2--2--2--|
F#|--2-----2-----2--2--2---2-----2--2-------2--2--2--2--|
C#|--2-----2-----2--2--2---0-----0--0-------0--0--0--0--| x12
G#|--0-----0-----0--0--0--------------------------------|
C#|-----------------------------------------------------|

  [Chrous] (Distortion)
D#|------------------------2-----2--2-------2--2--2--2--|
A#|--3-----3-----3--3--3---3-----3--3-------3--3--3--3--|
F#|--4-----4-----4--4--4---2-----2--2-------2--2--2--2--|
C#|--4-----4-----4--4--4---0-----0--0-------0--0--0--0--|
G#|--2-----2-----2--2--2--------------------------------|
C#|--2-----2-----2--2--2--------------------------------|

D#|------------------------------------------------------2----------------------------------------|
A#|------------------------------------------------------3----3--3--3--3--3--3--3--3--3--3--3--3--|
F#|--2-----2-----2--2--2---7-----7--7-------7--7--7--7---2----2--2--2--2--2--2--2--2--2--2--2--2--|
C#|--2-----2-----2--2--2---5-----5--5-------5--5--5--5---0----0--0--0--0--0--0--0--0--0--0--0--0--|
G#|--0-----0-----0--0--0---5-----5--5-------5--5--5--5--------------------------------------------|
C#|------------------------5-----5--5-------5--5--5--5--------------------------------------------|

  [Post-Chorus] (Distortion)
D#|-----------------------2-----2--2-----2--2--2--2--|
A#|-----------------------2-----2--2-----2--2--2--2--|
F#|--2-----------2--2--x--2-----2--2-----2--2--2--2--|
C#|--2-----------2--2--x--0-----0--0-----0--0--0--0--|
G#|--0-----------0--0--x-----------------------------|
C#|--------------------------------------------------|

D#|-----------------------2-----2--2-------2--2--2--|
A#|-----------------------2-----2--2-------2--2--2--|
F#|--2-----2-----2--2--x--2-----2--2-------2--2--2--|
C#|--2-----2-----2--2--x--0-----0--0-------0--0--0--| x2
G#|--0-----0-----0--0--x----------------------------| 
C#|-------------------------------------------------|

  [Second Verse] (Distortion)
D#|------------------------2-----2--2-------2--2--2--2--|
A#|------------------------2-----2--2-------2--2--2--2--|
F#|--2-----2-----2--2--2---2-----2--2-------2--2--2--2--|
C#|--2-----2-----2--2--2---0-----0--0-------0--0--0--0--| x12
G#|--0-----0-----0--0--0--------------------------------|
C#|-----------------------------------------------------|

  [Second Chrous] (Distortion)
D#|------------------------2-----2--2-------2--2--2--2--|
A#|--3-----3-----3--3--3---3-----3--3-------3--3--3--3--|
F#|--4-----4-----4--4--4---2-----2--2-------2--2--2--2--|
C#|--4-----4-----4--4--4---0-----0--0-------0--0--0--0--|
G#|--2-----2-----2--2--2--------------------------------|
C#|--2-----2-----2--2--2--------------------------------|

D#|------------------------------------------------------2----------------------------------------|
A#|------------------------------------------------------3----3--3--3--3--3--3--3--3--3--3--3--3--|
F#|--2-----2-----2--2--2---7-----7--7-------7--7--7--7---2----2--2--2--2--2--2--2--2--2--2--2--2--|
C#|--2-----2-----2--2--2---5-----5--5-------5--5--5--5---0----0--0--0--0--0--0--0--0--0--0--0--0--|
G#|--0-----0-----0--0--0---5-----5--5-------5--5--5--5--------------------------------------------|
C#|------------------------5-----5--5-------5--5--5--5--------------------------------------------|

  [Outro] (Distortion)
D#|--------------------------------------------------------|
A#|--------------------------------------------------------|
F#|--2-----2------2--2--2--2-----2--2--2-----2--2--2--2----|
C#|--2-----2------2--2--2--2-----2--2--2-----2--2--2--2----|
G#|--0-----0------0--0--0--0-----0--0--0-----0--0--0--0----|
C#|--------------------------------------------------------|

D#|--------------------------------------------------------|
A#|--------------------------------------------------------|
F#|--------------------------------------------------------|
C#|--4-----4------4--4--4--4-----4--4--4-----4--4--4--4----|
G#|--4-----4------4--4--4--4-----4--4--4-----4--4--4--4----|
C#|--4-----4------4--4--4--4-----4--4--4-----4--4--4--4----|

D#|----------------------------------------------------------------------------------------------------------|
A#|--3-----3-----3--3--3-------------------------------------3-----3-----3--3--3-----------------------------|
F#|--2-----2-----2--2--2--7-----7-----7-----7--7--7--7-------2-----2-----2--2--2--7-----7-----7---7--7--7--7-|
C#|--0-----0-----0--0--0--5-----5-----5-----5--5--5--5-------0-----0-----0--0--0--5-----5-----5---5--5--5--5-|
G#|-----------------------5-----5-----5-----5--5--5--5----------------------------5-----5-----5---5--5--5--5-|
C#|-----------------------5-----5-----5-----5--5--5--5----------------------------5-----5-----5---5--5--5--5-|

D#|-------------------------------------------------------|
A#|-------------------------------------------------------|
F#|--2-----------2--2--2--2-----2--2--2-----2--2--2--2----|
C#|--2-----------2--2--2--2-----2--2--2-----2--2--2--2----|
G#|--0-----------0--0--0--0-----0--0--0-----0--0--0--0----|
C#|-------------------------------------------------------|

D#|-------------------------------------------------------|
A#|-------------------------------------------------------|
F#|-------------------------------------------------------|
C#|--4-----------4--4--4--4-----4--4--4-----4--4--4--4----|
G#|--4-----------4--4--4--4-----4--4--4-----4--4--4--4----|
C#|--4-----------4--4--4--4-----4--4--4-----4--4--4--4----|

D#|----------------------------------------------------------------------|
A#|--3-----3-----3--3--3---------------3-----3-----3--3--3---------------|
F#|--2-----2-----2--2--2--7------------2-----2-----2--2--2--7------------|
C#|--0-----0-----0--0--0--5------------0-----0-----0--0--0--5------------|
G#|-----------------------5---------------------------------5------------|
C#|-----------------------5---------------------------------5------------|


************************************

| x   Dead note
| h   Hammer-on
| b   Bend
| /   Slide up
| pb  Pre-bend
| \   Slide down

************************************

            
            
Suggest correction
Creating personal tab
Creating personal tab
You can edit any tab online and save it as your Personal.

You can edit, replace or remove any tab part or add personal notes – all changes will be seen only by you.

Personal tabs can be accessed anytime from any device, even offline.
Learn more »
Give kudos to tab author, rate the tab!
1 2 3 4 5
comments
print report bad tab
1 comment total.
0 reply
Ajkulikowski 10 Apr 30, 2017 04:48 PM

Much better than the other two. Thanks!

guest
You may want to rate the tab now too:
select rating
Wanna post a correction for this tab? Suggest correction