Oops, an error
Loading. Please wait.

Spoiled tab

8,139 views 12 this week
4 commentsread comments
1 2 3 4 5
x 6
add to favorites
×
Save as Personal and add changes to this tab that will be seen only by you. Learn more ›
×
You can save this tab as Personal to edit and correct it or add notes. All changes will be seen only by you. Learn more »
launch autoscroll
font size
0
reset
how to read this tab
guitar tuner
edit
Autoscroll
slow
fast
+/-
esc
set tempo
stop
Basement - Spoiled 
jjjddd

Drop C#

    intro
eb|-------------------------------|
Bb|-------------------------------|
Gb|--------3bu-------3bu-----3b---|
Db|--4-4-4-----4-4-4-----4-4------|x6
Ab|--4-4-4-----4-4-4-----4-4------|
Db|--4-4-4-----4-4-4-----4-4------|
     * * *     * * *     * *    
eb|-------------------------------|
Bb|-------------------------------|
Gb|-------------------------------|
Db|--9-9--9-9-9--14-14--14-14-14--|
Ab|--9-9--9-9-9--12-12--12-12-12--|
Db|--9-9--9-9-9--12-12--12-12-12--|

eb|-------------------------------|
Bb|-------------------------------|
Gb|--------3bu-------3bu-----3b---|
Db|--4-4-4-----4-4-4-----4-4------|x3
Ab|--4-4-4-----4-4-4-----4-4------|
Db|--4-4-4-----4-4-4-----4-4------|
     * * *     * * *     * *    
eb|----------------------------------|
Bb|----------------------------------|
Gb|----------------------------------|
Db|--9-9--9-9-9--14-14--14-14-14\4~~-|
Ab|--9-9--9-9-9--12-12--12-12-12\4~~-|
Db|--9-9--9-9-9--12-12--12-12-12\4~~-|


   verse
eb|----------------------------------|
Bb|----------------------------------|   |lyrics|
Gb|----------------------------------|  colour me in kindness
Db|-4~~--/-9---x-x--\4-----4--/-9b~~-|  cover me with love
Ab|-4~~--/-9---x-x--\4-----4--/-9b~~-|  i am blessed
Db|-4~~--/-9 --x-x--\4-----4--/-9b~~-|

eb|--------------------------------------|
Bb|--------------------------------------|    |lyrics|
Gb|--------------------------------------|   youre burying your father
Db|--4-4-4-4--4-4-4-4--5-5-5-5--9-9-9-9--|x2 youre burying your son
Ab|--4-4-4-4--4-4-4-4--5-5-5-5--9-9-9-9--|   you are dead
Db|--4-4-4-4--4-4-4-4--5-5-5-5--9-9-9-9--|
     * * *    * * *    * * *    * * * 

chorus
eb|-------------------------------------------|    |lyrics|
Bb|-------------------------------------------|   i know nothing of real pain
Gb|--------------------------6-6-6-6-6-6-6-6--|   im a child and i am spoiled
Db|-111111111-14-14-14-14-14-4-4-4-4-4-4-4-4--|x2 i hate myself for my complaints
Ab|-9-9-9-9-9-12-12-12-12-12-4-4-4-4-4-4-4-4--|   im pathetic and im bored
Db|-9-9-9-9-9-12-12-12-12-12-4-4-4-4-4-4-4-4--|

eb|--------------------------------------|
Bb|--------------------------------------|   |lyrics|
Gb|-9-9-9-9-9-7-7-7-7-7-6-6-6-6-6-6-6-6--|  i cry simply at the thought
Db|-7-7-7-7-7-5-5-5-5-5-4-4-4-4-4-4-4-4--|  i crumble at the sight
Ab|-7-7-7-7-7-5-5-5-5-5-4-4-4-4-4-4-4-4--|  
Db|-7-7-7-7-7-5-5-5-5-5-4-4-4-4-4-4-4-4--|

eb|----------------------|
Bb|----------------------|   |lyrics|
Gb|-9-9-9-9-9-7-7-7-7-7--| if i ever had to...
Db|-7-7-7-7-7-5-5-5-5-5--| 
Ab|-7-7-7-7-7-5-5-5-5-5--|
Db|-7-7-7-7-7-5-5-5-5-5--|

intro (again)
eb|-------------------------------|      |lyrics|
Bb|-------------------------------|    feel, i 
Gb|--------3bu-------3bu-----3b---|    id fall to my knees
Db|--4-4-4-----4-4-4-----4-4------|x3  pray for
Ab|--4-4-4-----4-4-4-----4-4------|
Db|--4-4-4-----4-4-4-----4-4------|
     * * *     * * *     * *    
eb|-------------------------------|     |lyrics|
Bb|-------------------------------|   god to save me
Gb|-------------------------------|
Db|--9-9--9-9-9--14-14--14-14-14--|
Ab|--9-9--9-9-9--12-12--12-12-12--|
Db|--9-9--9-9-9--12-12--12-12-12--|

eb|-------------------------------|     |lyrics|
Bb|-------------------------------|   feel, i
Gb|--------3bu-------3bu-----3b---|   id fall to my knees
Db|--4-4-4-----4-4-4-----4-4------|x3 pray for
Ab|--4-4-4-----4-4-4-----4-4------|
Db|--4-4-4-----4-4-4-----4-4------|
     * * *     * * *     * *    
eb|----------------------------------|   |lyrics|
Bb|----------------------------------|  god to save me
Gb|----------------------------------|
Db|--9-9--9-9-9--14-14--14-14-14\4~~-|
Ab|--9-9--9-9-9--12-12--12-12-12\4~~-|
Db|--9-9--9-9-9--12-12--12-12-12\4~~-|


bridge/verse (/w flange)                  |lyrics|
eb|--------------------------------|   i have never been in love 
Bb|----0-----0-------0-------------|   i pretend to care
Gb|------3-----3------4-----7-6\3--|   convince myself that its enough
Db|--------------------------------|x6 i was never there
Ab|--4-----4-----4/5---5/9---------|   i am hiding in the dust
Db|--4-----4-----4/5---5/9---------|   sweep me underneath the chair
                                       i have never been in love, i keep on giving...

ending
eb|------------------------------------|
Bb|------------------------------------|    |lyrics|
Gb|------------------------------------|   i keep on giving up
Db|-4444444444444444-55555555-99999999-|x5 i keep on giving...
Ab|-4444444444444444-55555555-99999999-|
Db|-4444444444444444-55555555-99999999-|

eb|-----------------------------|
Bb|-----------------------------|
Gb|--------3bu-------3bu--------|
Db|--4-4-4-----4-4-4-----4-4-4--|
Ab|--4-4-4-----4-4-4-----4-4-4--|
Db|--4-4-4-----4-4-4-----4-4-4--|
     * * *     * * *     * * *  


RIP BASEMENT


            
            
Suggest correction
Creating personal tab
Creating personal tab
You can edit any tab online and save it as your Personal.

You can edit, replace or remove any tab part or add personal notes – all changes will be seen only by you.

Personal tabs can be accessed anytime from any device, even offline.
Learn more »
comments
print report bad tab
4 comments total. Showing first comments.
+2 reply
brandoharriso 10 May 09, 2014 05:22 PM


the 2nd part of the intro is wrong...should be:

eb|-------------------------------|
Bb|-------------------------------|
Gb|--------3bu-------3bu-----3b---|
Db|--4-4-4-----4-4-4-----4-4------|x6
Ab|--4-4-4-----4-4-4-----4-4------|
Db|--4-4-4-----4-4-4-----4-4------|
* * * * * * * *

eb|-------------------------------|
Bb|-------------------------------|
Gb|--------------6-6--6-6-6-------|
Db|--4-4--4-4-4--7-7--7-7-7-------|
Ab|--2-2--2-2-2--5-5--5-5-5-------|
Db|--4-4--4-4-4--7-7--7-7-7-------|

the first part of the verse should be:
eb|----------------------------------|
Bb|----------------------------------| |lyrics|
Gb|----------------------------------| colour me in kindness
Db|----------------------------------| cover me with love
Ab|----------------------------------| i am blessed
Db|-2/4~~~~---------2/4~~---4/9~~~~~-|

the rest of the verse is right

chorus should be:

eb|----------------------------------------|
Bb|----------------------------------------|
Gb|-6-6-6-6-6--6-6-6-6-6--3-3-3-3-3-3-3-3--|
Db|-7-7-7-7-7--7-7-7-7-7--4-4-4-4-4-4-4-4--|x2
Ab|-9-9-9-9-9--9-9-9-9-9--4-4-4-4-4-4-4-4--|
Db|-9-9-9-9-9--0-0-0-0-0--4-4-4-4-4-4-4-4--|

not 100% percent on the 2nd part of the chorus...i'm pretty sure what you have tabbed on the g string is wrong. this is my guess:

eb|--------------------------------------|
Bb|--------------------------------------| |lyrics|
Gb|-6-6-6-6-6-4-4-4-4-4-3-3-3-3-3-3-3-3--| i cry simply at the thought
Db|-7-7-7-7-7-5-5-5-5-5-4-4-4-4-4-4-4-4--| i crumble at the sight
Ab|-7-7-7-7-7-5-5-5-5-5-4-4-4-4-4-4-4-4--|
Db|-7-7-7-7-7-5-5-5-5-5-4-4-4-4-4-4-4-4--|

good tab. i thought it sounded great when i played it but then watched this video: http://www.youtube.com/watch?v=YhzEH_4pRxA (spoiled is played at 5:15) and noticed the guitarist was doing some things differently.

0 reply
brandoharriso 10 May 09, 2014 05:23 PM


the 2nd part of the intro is wrong...should be:

eb|-------------------------------|
Bb|-------------------------------|
Gb|--------3bu-------3bu-----3b---|
Db|--4-4-4-----4-4-4-----4-4------|x6
Ab|--4-4-4-----4-4-4-----4-4------|
Db|--4-4-4-----4-4-4-----4-4------|
* * * * * * * *

eb|-------------------------------|
Bb|-------------------------------|
Gb|--------------6-6--6-6-6-------|
Db|--4-4--4-4-4--7-7--7-7-7-------|
Ab|--2-2--2-2-2--5-5--5-5-5-------|
Db|--4-4--4-4-4--7-7--7-7-7-------|

the first part of the verse should be:
eb|----------------------------------|
Bb|----------------------------------| |lyrics|
Gb|----------------------------------| colour me in kindness
Db|----------------------------------| cover me with love
Ab|----------------------------------| i am blessed
Db|-2/4~~~~---------2/4~~---4/9~~~~~-|

the rest of the verse is right

chorus should be:

eb|----------------------------------------|
Bb|----------------------------------------|
Gb|-6-6-6-6-6--6-6-6-6-6--3-3-3-3-3-3-3-3--|
Db|-7-7-7-7-7--7-7-7-7-7--4-4-4-4-4-4-4-4--|x2
Ab|-9-9-9-9-9--9-9-9-9-9--4-4-4-4-4-4-4-4--|
Db|-9-9-9-9-9--0-0-0-0-0--4-4-4-4-4-4-4-4--|

not 100% percent on the 2nd part of the chorus...i'm pretty sure what you have tabbed on the g string is wrong. this is my guess:

eb|--------------------------------------|
Bb|--------------------------------------| |lyrics|
Gb|-6-6-6-6-6-4-4-4-4-4-3-3-3-3-3-3-3-3--| i cry simply at the thought
Db|-7-7-7-7-7-5-5-5-5-5-4-4-4-4-4-4-4-4--| i crumble at the sight
Ab|-7-7-7-7-7-5-5-5-5-5-4-4-4-4-4-4-4-4--|
Db|-7-7-7-7-7-5-5-5-5-5-4-4-4-4-4-4-4-4--|

good tab. i thought it sounded great when i played it but then watched this video: http://www.youtube.com/watch?v=YhzEH_4pRxA (spoiled is played at 5:15) and noticed the guitarist was doing some things differently.

0 reply
brandoharriso 10 May 09, 2014 05:29 PM

good tab. i thought it sounded great when i played it but then watched this video:
http://www.youtube.com/watch?v=YhzEH_4pRxA
(spoiled is played at 5:15)
and noticed the guitarist was doing some things differently.

sorry on all the posts...first timer here.

guest
You may want to rate the tab now too:
select rating
Wanna post a correction for this tab? Suggest correction