Oops, an error
Loading. Please wait.

Dota tab

version 2
version 2

Whole song

Interactive

19,042 views 3 this week
3 commentsread comments
1 2 3 4 5
x 8
add to favorites
×
Save as Personal and add changes to this tab that will be seen only by you. Learn more ›
×
You can save this tab as Personal to edit and correct it or add notes. All changes will be seen only by you. Learn more »
launch autoscroll
font size
0
reset
how to read this tab
guitar tuner
edit
Autoscroll
slow
fast
+/-
esc
set tempo
stop
Author
Difficulty
----------------------------------------------------------------------------
                             DOTA - Basshunter
----------------------------------------------------------------------------
Tabbed by: Andrew Davis
Email: iiidavisiii@gmail.com

This is the chorus and pretty much the whole song.
4 DAY RAVE!

e|-------------------------------------------------------------------------|
B|-------------------------------------------------------------------------|
G|-------------------------------------------------------------------------|
D|--5---5---5---7---------5----5---5--7------------------------------------|
A|----7---7-------7---------77---7------8----------------------------------|
E|-------------------------------------------------------------------------|

e|-------------------------------------------------------------------------|
B|-------------------------------------------------------------------------|
G|-------------------------------------------------------------------------|
D|--5---5---5-5----------5---5---5-5---------------------------------------|
A|----7---7-----8----------7---7-----7-------------------------------------|
E|-------------------------------------------------------------------------|

============================================================================

            
            
Suggest correction
Creating personal tab
Creating personal tab
You can edit any tab online and save it as your Personal.

You can edit, replace or remove any tab part or add personal notes – all changes will be seen only by you.

Personal tabs can be accessed anytime from any device, even offline.
Learn more »
comments
print report bad tab
3 comments total.
+2 reply
andrewdavis 83 Feb 10, 2008 12:39 PM

The last part actually goes like this, sorry.

D|--5---5---5-5----------5---5---5-5---------------------------------
A|----7---7----------------7---7------------------------------------
E|--------------8-------------------7--------------------------------

+1 reply
zaide 10 Mar 29, 2008 06:50 PM

this is a sweet ħ§ song

+1 reply
zaide 10 Mar 29, 2008 06:52 PM

your moms played like that j/k it sounds good

guest
You may want to rate the tab now too:
select rating
Wanna post a correction for this tab? Suggest correction