Oops, an error
Loading. Please wait.

Two Evils tab

version 2
version 2

Whole song

  • No other versions as its a new release, this is al... Show more
  • This is accurate to how Will actually plays it. Fu... Show more
1,378 views 27 this week
1 commentread comment
1 2 3 4 5
x 6
add to favorites
×
Save as Personal and add changes to this tab that will be seen only by you. Learn more ›
×
You can save this tab as Personal to edit and correct it or add notes. All changes will be seen only by you. Learn more »
launch autoscroll
font size
0
reset
how to read this tab
guitar tuner
edit
Autoscroll
slow
fast
+/-
esc
set tempo
stop
Author
Difficulty
About this tab version
This is accurate to how Will actually plays it. Full song. Includes all lyrics. Standard tuning. Was this info helpful? Yes No
TWO EVILS /// BASTILLE
Tabbed by Hanna M | instagram @wildworldpilots

I watched this video: https://www.youtube.com/watch?v=ybqLl4DhwH4
The very last thing in the outro is not actually how it's played in the studio version
but Will played it like that in this video and I thought it sounded cool...

I was only going to correct the other version but I felt like I changed too much so I submitted a new one.

Original tuning, No capo  
Enjoy!



[VERSE]

I'm the lesser of two evils, or am I, am I tricking myself nice...

  G#m                       E                         C#m          D#           G#m                F#
e|-------------------------|-------------------------|-------------------------|-------------------------|
B|-------------------------|-------------------------|-------5-----------4-----|-------------------------|
G|-------4-----------4-----|-------4-----------4-----|-----6---6-------6---6---|-------4-----------------|
D|-----6---6-------6---4---|-----6---6-------6---6---|---6-------6---5-------5-|-----6---6---------------|
A|---6-------6---6-------6-|---7-------7---7-------7-|-4-----------6-----------|---6-------6-------------|
E|-4-----------4-----------|-0-----------0-----------|-------------------------|-4-----------4-----2-----|

If I'm the lesser of two evils, who's this man, who's this act I hide behind?

 G#m                        E                         C#m          D#           G#m
e|-------------------------|-------------------------|-------------------------|-------------------------|
B|-------------------------|-------------------------|-------5-----------4-----|-------------------------|
G|-------4-----------4-----|-------4-----------4-----|-----6---6-------6---6---|-------4-----------------|
D|-----6---6-------6---4---|-----6---6-------6---6---|---6-------6---5-------5-|-----6---6---------------|
A|---6-------6---6-------6-|---7-------7---7-------7-|-4-----------6-----------|---6-------6-------------|
E|-4-----------4-----------|-0-----------0-----------|-------------------------|-4-----------4-----------|



[CHORUS]

There are two ways to skin tonight, let's see whose road gets there faster
This is a game, no wrongs, no right, only a winner and a loser...

  C#m    F#    G#m          F#           G#m          C#m          G#m          F#           G#m          
e|-------------------------|-------------------------|-------------------------|-------------------------|
B|-------------------------|-------------------------|-------------------------|-------------------------|
G|-----------4-------4-----|-------3-----------4-----|-----------4-------4-----|-------3-----------------|
D|-------4h6-------6---6---|-----4---4-------6---6---|-------4h6-------6---6---|-----4-----------6-------|
A|-4h6-7---------6-------6-|---4-------4---6-------6-|-4h6-7---------6-------6-|---4-----------6---------|
E|-------------4-----------|-2-----------4-----------|-------------4-----------|-2-----------4-----------|


You and I, oh you and I, we're not that different you and I
Oh you and I, you and I, we're not that different you and I...

  C#m          G#m          D#           G#m          C#m          G#m          D#           G#m          
e|-------------------------|-------------------------|-------------------------|-------------------------|
B|----5~-------------------|-----4~------------------|----5~-------------------|-----4~------------------|
G|---6~-----------4~-------|----6~-----------4~------|---6~-----------4~-------|----6~-----------4~------|
D|--6~-----------6~--------|---5~-----------6~-------|--6~-----------6~--------|---5~-----------6~-------|
A|-4~-----------6~---------|--6~-----------6~--------|-4~-----------6~---------|--6~-----------6~--------|
E|-------------4~----------|--------------4~---------|-------------4~----------|--------------4~---------|



[BRIDGE] 

  G#m                       E                         C#m          D#           G#m
e|-------------------------|--------------------------|-------------------------|-------------------------|
B|---4-----------------4---|--0-----------------------|-------5-----------4-----|-------------------------|
G|---4-----------6-----4---|--------------4-----------|-----6---6-------6---6---|-------4-----------------|
D|---------------6---------|--6---6---------6-------6-|---6-------6---5-------5-|-----6---6---------------|
A|-------------------------|----7---7---7-----7---7---|-4-----------6-----------|---6-------6-------------|
E|---4-----4-----4-----4---|--0-------0---------0-----|-------------------------|-4-----------4-----------|



[VERSE 2]

Well I'm the lesser of two evils, so keep looking, just keep looking into my eyes...

  G#m                       E                         C#m          D#           G#m                F#
e|-------------------------|-------------------------|-------------------------|-------------------------|
B|-------------------------|-------------------------|-------5-----------4-----|-------------------------|
G|-------4-----------4-----|-------4-----------4-----|-----6---6-------6---6---|-------4-----------------|
D|-----6---6-------6---4---|-----6---6-------6---6---|---6-------6---5-------5-|-----6---6---------------|
A|---6-------6---6-------6-|---7-------7---7-------7-|-4-----------6-----------|---6-------6-------------|
E|-4-----------4-----------|-0-----------0-----------|-------------------------|-4-----------4-----2-----|

And as the lesser of two evils, it pays to, pays to be the nice guy sometimes...

 G#m                          E                         C#m          D#           G#m
e|--------------------------|-------------------------|-------------------------|------------------------|
B|--------------------------|-------------------------|-------5-----------4-----|------------------------|
G|--------4-----------4-----|-------4-----------4-----|-----6---6-------6---6---|-------4----------------|
D|------6---6-------6---4---|-----6---6-------6---6---|---6-------6---5-------5-|-----6---6--------------|
A|----6-------6---6-------6-|---7-------7---7-------7-|-4-----------6-----------|---6-------6------------|
E|--4-----------4-----------|-0-----------0-----------|-------------------------|-4-----------4----------|



[CHORUS 2]

There are two ways to skin tonight, let's see whose road gets there faster
Here I am hiding in plain sight, if you're not careful you will lose her...

  C#m          G#m          F#           G#m          C#m          G#m          F#           G#m          
e|-------------------------|-------------------------|-------------------------|-------------------------|
B|-------------------------|-------------------------|-------------------------|-------------------------|
G|-----------4-------4-----|-------3-----------4-----|-----------4-------4-----|-------3------------4----|
D|-------4h6-------6---6---|-----4---4-------6---6---|-------4h6-------6---6---|-----4---4--------6------|
A|-4h6-7---------6-------6-|---4-------4---6-------6-|-4h6-7---------6-------6-|---4-------4----6--------|
E|-------------4-----------|-2-----------4-----------|-------------4-----------|-2------------4----------|

You and I, you and I, we're not that different you and I
Oh you and I, you and I, we're not that different you and I...

  C#m          G#m          D#           G#m          C#m          G#m          F#           G#m          
e|-------------------------|-------------------------|-------------------------|-------------------------|
B|----5~-------------------|-----4~------------------|----5~-------------------|-----4~------------------|
G|---6~-----------4~-------|----6~-----------4~------|---6~-----------4~-------|----6~-----------4~------|
D|--6~-----------6~--------|---5~-----------6~-------|--6~-----------6~--------|---5~-----------6~-------|
A|-4~-----------6~---------|--6~-----------6~--------|-4~-----------6~---------|--6~-----------6~--------|
E|-------------4~----------|--------------4~---------|-------------4~----------|--------------4~---------|


[OUTRO]

You and I, you and I, we're not that different you and I...

  C#m          G#m          D#                     
e|-------------------------|----------0---------------|
B|----5~-------------------|--------4---4-------------|
G|---6~-----------4~-------|------6-------6-----------|
D|--6~-----------6~--------|----5-----------5---------|
A|-4~-----------6~---------|--6-----------------------|
E|-------------4~----------|--------------------------|

***********************************
| h   Hammer on
| ~   Vibrato

***********************************

            
            
Suggest correction
Creating personal tab
Creating personal tab
You can edit any tab online and save it as your Personal.

You can edit, replace or remove any tab part or add personal notes – all changes will be seen only by you.

Personal tabs can be accessed anytime from any device, even offline.
Learn more »
comments
print report bad tab
1 comment total.
0 reply
arakhion 10 Apr 18, 2017 01:23 PM

More accurate than the other one

guest
You may want to rate the tab now too:
select rating
Wanna post a correction for this tab? Suggest correction