Oops, an error
Loading. Please wait.

Home Of Once Brave tab

version 1
version 1

Whole song

Interactive

by Bathory
394 views 9 this week
no commentswrite comment
1 2 3 4 5
2 more votes to show rating
add to favorites
×
Save as Personal and add changes to this tab that will be seen only by you. Learn more ›
×
You can save this tab as Personal to edit and correct it or add notes. All changes will be seen only by you. Learn more »
launch autoscroll
font size
0
reset
how to read this tab
guitar tuner
edit
Autoscroll
slow
fast
+/-
esc
set tempo
stop
                Bathory
         - Home Of Once Brave -
              Hammerheart

         tabbed by PelzR


Just a conversion from my guitar pro version to a text file.

Tuning: Drop D (D A D G B E)

BPM: 100


Riff Section:
-------------

Intro (fades in)

     E E E E E E E E E   E E E E E E E E E
E| |-------------------|-------------------||
B| |-------------------|-------------------||
G|4|-------------------|-------------------||... Guitar 1
D|4|-------------------|-------------------||
A| |-0-0-0-0-0-0-0-0-0-|-0-0-0-0-0-0-0-0-0-||
D| |-0-0-0-0-0-0-0-0-0-|-0-0-0-0-0-0-0-0-0-||
     |-3-| |-3-| |-3-|   |-3-| |-3-| |-3-|

     E E E E E E E E E   E E E E E E E E E    E E E E E E E E E   E E E E E E E E E
E| |-------------------|-------------------|--------------------|--------------------||
B| |-------------------|-------------------|--------------------|--------------------||
G|4|-8-7-7-8-7-7-8-7-7-|-8-7-7-8-7-7-8-7-7-|o-8-7-7-8-7-7-8-7-7-|-8-7-7-8-7-7-8-7-7-o||... Guitar 2
D|4|-------------------|-------------------|o-0-0-0-0-0-0-0-0-0-|-0-0-0-0-0-0-0-0-0-o||
A| |-------------------|-------------------|--------------------|--------------------||
D| |-------------------|-------------------|--------------------|--------------------||
     |-3-| |-3-| |-3-|   |-3-| |-3-| |-3-|    |-3-| |-3-| |-3-|   |-3-| |-3-| |-3-|


Verse

     E E E E E E E E E   E E E E E E E E E   E E E E E E E E E   E E E E E E E E E
E| |-------------------|-------------------|-------------------|--------------------|
B| |-------------------|-------------------|-------------------|--------------------|
G|4|-------------------|-------------------|-------------------|--------------------|
D|4|-------------------|-------------------|-------------------|--------------------|
A| |-0-0-0-0-0-0-0-0-0-|-0-0-0-0-0-0-0-0-0-|-0-0-0-0-0-0-0-0-0-|-0-0-0-0-0-0-0-0-0--|
D| |-0-0-0-0-0-0-0-0-0-|-0-0-0-0-0-0-0-0-0-|-0-0-0-0-0-0-0-0-0-|-0-0-0-0-0-0-0-0-0--|
     |-3-| |-3-| |-3-|   |-3-| |-3-| |-3-|   |-3-| |-3-| |-3-|   |-3-| |-3-| |-3----|

     E E E E E E E E E   E E E E E E E E E   E E E E E E E E E   E E E E E E E E E
E| |-------------------|-------------------|-------------------|-------------------||
B| |-------------------|-------------------|-------------------|-------------------||
G|4|-------------------|-------------------|-------------------|-------------------|| Guitar 1
D|4|-------------------|-------------------|-------------------|-------------------||
A| |-3-3-3-3-3-3-3-3-3-|-3-3-3-3-3-3-3-3-3-|-3-3-3-3-3-3-3-3-3-|-3-3-3-3-3-3-3-3-3-||
D| |-3-3-3-3-3-3-3-3-3-|-3-3-3-3-3-3-3-3-3-|-3-3-3-3-3-3-3-3-3-|-3-3-3-3-3-3-3-3-3-||
     |-3-| |-3-| |-3-|   |-3-| |-3-| |-3-|   |-3-| |-3-| |-3-|   |-3-| |-3-| |-3-|

     E E E E E E E E E   E E E E E E E E E   E E E E E E E E E   E E E E E E E E E
E| |-------------------|-------------------|-------------------|-------------------|
B| |-------------------|-------------------|-------------------|-------------------|
G|4|-8-7-7-8-7-7-8-7-7-|-8-7-7-8-7-7-8-7-7-|-8-7-7-8-7-7-8-7-7-|-8-7-7-8-7-7-8-7-7-|
D|4|-0-0-0-0-0-0-0-0-0-|-0-0-0-0-0-0-0-0-0-|-0-0-0-0-0-0-0-0-0-|-0-0-0-0-0-0-0-0-0-|
A| |-------------------|-------------------|-------------------|-------------------|
D| |-------------------|-------------------|-------------------|-------------------|
     |-3-| |-3-| |-3-|   |-3-| |-3-| |-3-|   |-3-| |-3-| |-3-|   |-3-| |-3-| |-3-|

     E E E E E E E E E   E E E E E E E E E   E E E E E E E E E   E E E E E E E E E
E| |-------------------|-------------------|-------------------|-------------------||
B| |-------------------|-------------------|-------------------|-------------------||
G|4|-8-7-7-8-7-7-8-7-7-|-8-7-7-8-7-7-8-7-7-|-8-7-7-8-7-7-8-7-7-|-8-7-7-8-7-7-8-7-7-|| Guitar 2
D|4|-0-0-0-0-0-0-0-0-0-|-0-0-0-0-0-0-0-0-0-|-0-0-0-0-0-0-0-0-0-|-0-0-0-0-0-0-0-0-0-||
A| |-------------------|-------------------|-------------------|-------------------||
D| |-------------------|-------------------|-------------------|-------------------||
     |-3-| |-3-| |-3-|   |-3-| |-3-| |-3-|   |-3-| |-3-| |-3-|   |-3-| |-3-| |-3-|


Pre-Chorus

     Q  E E E E Q  E E E E
E| |-----------------------||
B| |-----------------------||
G|4|-7--7-7-7-7-7--7-7-7-7-|| a mixture
D|4|-7--7-7-7-7-7--7-7-7-7-|| of both
A| |-5--5-5-5-5-5--5-5-5-5-|| guitars
D| |-0--0-0-0-0-0--0-0-0-0-||
     |-3-||-3-| |-3-||-3-|


Chorus

     W   W   W   H  Q Q   H. Q   H. Q   W   H  Q Q   W   W   W   H  Q Q
E| |---|---|---|--------|------|------|---|--------|---|---|---|--------|
B| |---|---|---|--------|------|------|---|--------|---|---|---|--------|
G|4|---|---|---|--------|------|------|---|--------|---|---|---|--------|
D|4|---|---|---|--------|------|------|---|--------|---|---|---|--------|
A| |-0-|-2-|-0-|-3--2-3-|-0--3-|-2--3-|-5-|-3--2-3-|-0-|-2-|-0-|-3--2-3-|
D| |-0-|-2-|-0-|-3--2-3-|-0--3-|-2--3-|-5-|-3--2-3-|-0-|-2-|-0-|-3--2-3-|


     H. Q   H. Q   H  Q Q   Q  E E E E E E E E E
E| |------|------|--------|----------------------||
B| |------|------|--------|----------------------||
G|4|------|------|--------|----------------------||  Guitar 1
D|4|------|------|--------|----------------------||
A| |-0--3-|-2--3-|-5--0-2-|-3--3-3-3-3-2-0-3-2-0-||
D| |-0--3-|-2--3-|-5--0-2-|-3--3-3-3-3-2-0-3-2-0-||
                               |-3-| |-3-| |-3-|
                                 . . . . . . . .

     W   W   W    H  Q  Q   H.  Q   H.  Q    W    H  Q  Q   W   W   W
E| |---|---|---|----------|-------|-------|----|----------|---|---|---|
B| |---|---|---|----------|-------|-------|----|----------|---|---|---|
G|4|-7-|-9-|-7-|-10--9-10-|-7--10-|-9--10-|-12-|-10--9-10-|-7-|-9-|-7-|
D|4|-7-|-9-|-7-|-10--9-10-|-7--10-|-9--10-|-12-|-10--9-10-|-7-|-9-|-7-|
A| |-5-|-7-|-5-|--8--7--8-|-5---8-|-7---8-|-10-|--8--7--8-|-5-|-7-|-5-|
D| |---|---|---|----------|-------|-------|----|----------|---|---|---|


      H  Q  Q   H.  Q   H.  Q    H  Q Q   H  E E E E E E E E E
E| |----------|-------|-------|---------|----------------------||
B| |----------|-------|-------|---------|----------------------||
G|4|-10--9-10-|-7--10-|-9--10-|-12--7-9-|----------------------|| Guitar 2
D|4|-10--9-10-|-7--10-|-9--10-|-12--7-9-|----------------------||
A| |--8--7--8-|-5---8-|-7---8-|-10--5-7-|-3--3-3-3-3-2-0-3-2-0-||
D| |----------|-------|-------|---------|-3--3-3-3-3-2-0-3-2-0-||
                                             |-3-| |-3-| |-3-|
                                               . . . . . . . .


Solo (over the 'Verse' riff)

     W    W   W    H  H      W      W    H.  E.  S     Q.   S  S  E E  E E  E  E
E| |---|----|---|--------|-------|-----|------------|----------------------------|
B| |---|-10-|---|--------|-------|-----|------------|----------8h10p8----8-10-13-|
G|4|-7-|----|-9-|-10-12--|-(12)--|-10--|-9--(9)-10h-|-12---12---------10---------|
D|4|---|----|---|----15b-|-(15b)-|-13b-|------------|----------------------------|
A| |---|----|---|--------|-------|-----|------------|----------------------------|
D| |---|----|---|--------|-------|-----|------------|----------------------------|
                                                                  |- 3 -||- 3 -|

      H   Q   Q     W     H.  Q     H   H
E| |-------------|-----|---------|---------|
B| |-15--15--15--|-15--|-15--18--|-17--13--|
G|4|-----17b-17b-|-17b-|-17b-20b-|-19b-15b-|
D|4|-------------|-----|---------|---------|
A| |-------------|-----|---------|---------|
D| |-------------|-----|---------|---------|

     W   W   W   H  H    W   W    W    H   Q   Q     W     H.  Q    H   H     H   H
E| |---|---|---|-------|---|---|----|-------------|-----|--------|---------|---------||
B| |---|---|---|-------|---|---|-10-|-15--15--17--|-18--|-17--20-|-18--17--|-18--20--||
G|4|-5-|---|---|-------|---|-7-|----|-17b-17b-19b-|-20b-|-19b-22b|-20b-19b-|-20b-22b-||
D|4|---|-3-|---|-------|---|---|----|-------------|-----|--------|---------|---------||
A| |---|---|-3-|-------|---|---|----|-------------|-----|--------|---------|---------||
D| |---|---|---|-3--3b-|-0-|---|----|-------------|-----|--------|---------|---------||


Outro (the "For Whom The Bell Tolls" one...)

     H  Q  H     H  Q  H  Q  H                H  Q  H   W
E| |---------| |---------------|            |---------|---||
B| |---------| |---------------|            |---------|---||
G|4|---------|6|---------------| Guitar 1   |---------|---|| this is the
D|4|-0--2--2-|4|-0--2--2--3--3-|            |-0--2--2-|-0-|| last
A| |-0--2--2-| |-0--2--2--3--3-|            |-0--2--2-|-0-|| bit of it
D| |-0--2--2-| |-0--2--2--3--3-|            |-0--2--2-|-0-||
        3  3        3  3  3  3                   3  3

      H   Q   H       H    Q    H    Q    H
E| |-22b-22b-22b-| |-22b--22b--22b--22b--22b-||
B| |-------------| |-------------------------||
G|4|-------------|6|-------------------------|| Guitar 2
D|4|-------------|4|-------------------------||
A| |-------------| |-------------------------||
D| |-------------| |-------------------------||
          3   3            3    3     3   3

Song Structure:
---------------
Intro         until the drums are coming
Verse         5x
Pre-Chorus    4x
Chorus        1x
Verse         4x
Pre-Chorus    4x
Chorus        1x
Verse         3x (with the 'solo')
Outro (gtr 1) 8x then the 'last bit one'
Outro (gtr 2) 5x then play with guitar feedback/reverb/delay/bendings or whatever


Description:
------------
. -> palm mute |  (x) -> let ring |  | h -> hammer-on | p -> pull-of | |-3-| or 3 -> triplet | o -> repeat
               |                  |  |                |              |                       | o

W -> whole note | H -> half note | Q -> quarter note | E -> eighth note | S -> sixteenth 
| . -> dotted note

4 or 6 -> time signature
4    4

            
            
Suggest correction
Creating personal tab
Creating personal tab
You can edit any tab online and save it as your Personal.

You can edit, replace or remove any tab part or add personal notes – all changes will be seen only by you.

Personal tabs can be accessed anytime from any device, even offline.
Learn more »
Give kudos to tab author, rate the tab!
1 2 3 4 5
comments
print report bad tab
guest
You may want to rate the tab now too:
select rating
Wanna post a correction for this tab? Suggest correction