Oops, an error
Loading. Please wait.

In Nomine Satanas tab

version 1
version 1

Whole song

Interactive

by Bathory
3,203 views 1 this week
no commentswrite comment
1 2 3 4 5
2 more votes to show rating
add to favorites
×
Save as Personal and add changes to this tab that will be seen only by you. Learn more ›
×
You can save this tab as Personal to edit and correct it or add notes. All changes will be seen only by you. Learn more »
launch autoscroll
font size
0
reset
how to read this tab
guitar tuner
edit
Autoscroll
slow
fast
+/-
esc
set tempo
stop
|-----------------Bathory----------------|
|------------In-Nomine-Satanas-----------|
|------------Jubileum-Volume-3-----------|

Tempo: 130 BPM (approx.)
Tuning: Drop D (D A D G B E)

-----
Info:
-----
This is a track from the Jubileum Volume 3 record and was never released before.
This song is basically only one riff, he used it during the whole song which 
goes about 6 minutes and 26 seconds.

The Intro/Main Riff would be later used on the "Twilight Of The Gods" record by Bathory 
in the song "Bond Of Blood", altough the main riff is played a little bit lower on Bond of Blood.


------------
Update 2012!
------------
After my "Bond Of Blood" Tab, I updated this version. Should be more accurate. 
Also a thanks to h3llh4mm3r because with his tab I recognized my mistakes.


------
Riffs:
------


Intro Parts:
------------
                                                                       
Acoustic Guitar Intro

      E E E E E E E E   E E E E Q E E E  E E E E E E E E   E E E E E E E E 2x
E|-|------------------|----------------|---------1-------|------------------|
B|-|----------4-------|---------3------|-----------1-----|-----4---3-4------|
G|4|o-------2---2-----|-------2----2---|-------2-----2---|-------------3---o|
D|4|o-----0-------0---|-----0--------0-|-----0---------0-|---0---0-------0-o|
A|-|----0-----------0-|---0------------|---0-------------|------------------|
D|-|--0---------------|-0--------------|-0---------------|-0----------------|

                                                                                       
                                                          during the second repeat, 
Distortion Guitar Intro                                   replace the last bar with this

      H    H      W        H     H      W      2x           Q  Q  H
E|-|------------|--------|------------|---------|         |---------|
B|-|------------|--------|------------|---------|         |---------|
G|4|o------8----|-7------|-(7)---10---|-8------o|         |---------|
D|4|o------8----|-7------|-(7)---10---|-8------o|         |-5--7--8-|
A|-|--0----6----|-5------|-(5)----8---|-6-------|         |-3--5--6-|
D|-|--0---------|--------|------------|---------|         |---------|




Distortion Guitar Main Riff (maybe with some variatons during this song)

     H  H   H.  Q   H  H   H.  Q   H  H   H.  Q   H  H   Q  Q  H
E|-|------|-------|------|-------|------|-------|------|---------|
B|-|------|-------|------|-------|------|-------|------|---------|
G|4|----8-|-7-----|---10-|-8-----|----8-|-7-----|---10-|---------|
D|4|----8-|-7-----|---10-|-8-----|----8-|-7-----|---10-|-5--7--8-|
A|-|-0--6-|-5---1-|-0--8-|-6---3-|-0--6-|-5---1-|-0--8-|-3--5--6-|
D|-|-0----|-----1-|-0----|-----3-|-0----|-----1-|-0----|---------|

   
Basically... that's it.

----------
Structure:
----------
For this song I'm not able to write detailed things here, just play the "Main 
Part" over and over again. 

About 5:35 minutes you have to play only the first 2 bars of the "Main Part" until 
the end of the song.

------------
Description:
------------
W   - whole notes
H   - half notes (a dote behing the note -> dotted note)
Q   - quarter notes
E   - 8th notes

|4|
|4| - Time Signature (e.g. stands for 4/4)

|o  - repeat start
o|  - repeat end

            
            
Suggest correction
Creating personal tab
Creating personal tab
You can edit any tab online and save it as your Personal.

You can edit, replace or remove any tab part or add personal notes – all changes will be seen only by you.

Personal tabs can be accessed anytime from any device, even offline.
Learn more »
Give kudos to tab author, rate the tab!
1 2 3 4 5
comments
print report bad tab
guest
You may want to rate the tab now too:
select rating
Wanna post a correction for this tab? Suggest correction