Oops, an error
Loading. Please wait.

Beach Book bass

616 views 12 this week
no commentswrite comment
1 2 3 4 5
1 last vote to show rating
add to favorites
×
Save as Personal and add changes to this tab that will be seen only by you. Learn more ›
×
You can save this tab as Personal to edit and correct it or add notes. All changes will be seen only by you. Learn more »
launch autoscroll
font size
0
reset
guitar tuner
edit
Autoscroll
slow
fast
+/-
esc
set tempo
stop
Author
Difficulty
About this tab version
I wrote this tab for the song by ear and you can listen to it through a stream service like Spotify or my link here https://www.youtube.com/watch?v=Kvr87wnP9ds. Was this info helpful? Yes No
[Intro] (Come in at 0:06)

G|-----------45----------4--5------------------------------------------------|
D|--2-3-4-5------2---2-----------4---0---------------------------------------|
A|----------------------------2----------2-----------------------------------|
E|---------------------------------------------------------------------------|

G|-----------4-5----------4-5-------------------- G|--4--5----------4-5-----------|
D|--2-3-4-5-------2---2------------------234-5--- D|--------2---2----------4--0---|
A|-----------------------------2----2------------ A|--------------------2-------2-|
E|----------------------------------------------- E|------------------------------|

G|-----------4-5---------4-5-------------------------------------------------|
D|--2-3-4-5-------2---2------------------2-3-4--5----------------------------|
A|-----------------------------2----2----------------------------------------|
E|---------------------------------------------------------------------------|

[Verse] So i maybe drunk... (0.34)

G|-4-5-------45---------------------4-5--------4-5--------4--5--------- ------|
D|-----2--2--------4--0----2-3-4-5-------2--2------2---2----------4--0-----234|
A|--------------2--------2-------------------------------------2--------2-----|
E|----------------------------------------------------------------------------|

G|---4-5---------4-5-----------------------4-5--------4/5\4------------------|
D|-5------2---2------------4--0----2-3-4-5------2--2--------2----------4-----|
A|---------------------2---------2-----------------------------2--2-2--------|
E|---------------------------------------------------------------------------|


[Chorus] You wanna Play... (1:00)

G|------4-----4/5\4----------------------4------4/5\4------------------------|
D|--5------2---------5-----4-----234--5------2----------5----4--0-----2-34---|
A|----------------------2-----2----------------------------2-------2---------|
E|---------------------------------------------------------------------------|

G|------4-----4/5\4----------------------4------4/5\4------------------------|
D|--5------2---------5-----4-----234--5------2----------5----4--------2-34- -|
A|----------------------2-----2----------------------------2-----2-----------|
E|---------------------------------------------------------------------------|


[Verse II] Please don't act like you notice... (1:29)

G|-----4/5\4---------------------------------4/5\4---------------------------|
D|--2---------5-----4--0------2-3-4------2----------------4--0-----234----5--|
A|--------------2---------2----------------------------2--------2------------|
E|---------------------------------------------------------------------------|


G|-4-5-------45---------------------4-5--------4-5--------4-5-----------------|
D|-----2--2--------4--0----2-3-4-5-------2--2------2---2----------4-----4-----|
A|--------------2--------2-------------------------------------2-----2--------|
E|----------------------------------------------------------------------------|

[Chorus II] I Put my Heart in you... (1:52)

G|------4-----4/5\4----------------------4------4/5\4------------------------|
D|--5------2---------5-----4-----234--5------2----------5----4--0-----2-34---|
A|----------------------2-----2----------------------------2-------2---------|
E|---------------------------------------------------------------------------|

G|------4-----4/5\4----------------------4------4/5\4---------------------2--|
D|--5------2---------5-----4-----234--5------2----------5----4----2-4--4-----|
A|----------------------2-----2----------------------------2----0-----------4|
E|---------------------------------------------------------------------------|

[Outro] I only know one game... (2:18)

G|-------4--------4/54----------------4------------4/5\4------------------------2--|
D|--5-5----5--2-2------------234--5-5----5--2---2---------5-------4-0-----2-4-4---4|
A|----------------------2-2----------------------------------2-2-------2-----------|
E|---------------------------------------------------------------------------------|

G|------4---------4/5-4-----------------------4------------4/5\4------------------2--|
D|45---5--5-2-2-------------4-0-----234-5-5----5--2---2---------5---------2-4-4----4-|
A|-----------------------2-2-------2---------------------------------2(x8)-----------|
E|-----------------------------------------------------------------------------------|

G|--------4--------4/5\4--------------------------4----------4/5\4-----------|
D|--45--5---5--2--2------------4-0-----234--5--5-----5--2---2--------5-------|
A|------------------------2-2-------2----------------------------------------|
E|---------------------------------------------------------------------------|

                             SLOW DOWN AND RING 
G|-------------------------------------------2--3-4--------------------------|
D|---------------234--5---2---------234--5-----------------------------------|
A|---2-2-2-2-2-2-------------2---2-------------------------------------------|
E|---------------------------------------------------------------------------|


************************************

| x   Dead note
| g   Grace note
| (n) Ghost note
| h   Hammer-on
| p   Pull-off
| r   Release
| >   Accented note
| t   Tapping
| b   Bend
| br  Bend release
| pb  Pre-bend
| pbr Pre-bend release
| /   Slide up
| \   Slide down
| ~   Vibrato
| s   Slap
| P   Pop
| PM  Palm mute
| TR  Trill
| N   Tremolo

************************************

            
            
Suggest correction
Creating personal tab
Creating personal tab
You can edit any tab online and save it as your Personal.

You can edit, replace or remove any tab part or add personal notes – all changes will be seen only by you.

Personal tabs can be accessed anytime from any device, even offline.
Learn more »
Give kudos to tab author, rate the tab!
1 2 3 4 5
comments
print report bad tab
guest
You may want to rate the tab now too:
select rating
Wanna post a correction for this tab? Suggest correction