Oops, an error
Loading. Please wait.

The Ghost Of Saint Valentine bass

by Bayside
928 views 1 this week
no commentswrite comment
1 2 3 4 5
1 last vote to show rating
add to favorites
×
Save as Personal and add changes to this tab that will be seen only by you. Learn more ›
×
You can save this tab as Personal to edit and correct it or add notes. All changes will be seen only by you. Learn more »
launch autoscroll
font size
0
reset
guitar tuner
edit
Autoscroll
slow
fast
+/-
esc
set tempo
stop
Author
This is my second tab. Enjoy.

Song: The Ghost of St. Valentine
Artist: Bayside
Album: Shudder

Intro
G----------------------------------|----------------------------------|
D----------------------------------|----------------------------------|
A----------------------------------|----------------------------------|
D-99999999000000005555555555555555-|-99999999000000005555555555555555-|

G-------|
D-------|
A-------|
D---7~--|

Verse 1
G--------------------------------------------------------------|
D--------------------------------------------------------------|
A--------------------------------------------------------------|
D-0-00--0-00--9-99--9-99--5-55--5-55--7-77-7-77--0-00-0-00--5~-|

G------------------------------------------------------------------|
D------------------------------------------------------------------|
A------------------------------------------------------------------|
D-0000000000000000999999999999999955555555777777770000000000000000-|

Pre-Chorus
G-------------------------------------------------------------------|
D-------------------------------------------------------------------|
A-------------------------------------------------------------------|
D-5-5-5555-7-7-7777-8-8-8888-9-9-9999-5-5~-55-5-5~-55-77-777-77-777-|

Chorus
G------------------------------------------------------------------|
D------------------------------------------------------------------|
A-------------------------55555555------------------------55555555-|
D-000000005555555577777777--------555555559999999977777777---------|

G-----------------------------------------------------------------|
D-----------------------------------------------------------------|
A-------------------------55555555------------------------5-5-5-5-|
D-000000005555555577777777--------555555559999999977777777--------|

G-----------|
D-----------|
A-----------|
D-0000-5-7~-|

Verse 2
G------------------------------------------------------------------|
D------------------------------------------------------------------|(2x)
A------------------------------------------------------------------|
D-0000000000000000999999999999999955555555777777770000000000000000-|

Pre-Chorus
G------------------------------------------------------------------|
D------------------------------------------------------------------|
A------------------------------------------------------------------|
D-5-5-5555-7-7-7777-8-8-8888-9-9-9999-5-5~55-5-5~-55-77-777-77-777-|

Chorus
G------------------------------------------------------------------|
D------------------------------------------------------------------|
A-------------------------55555555------------------------55555555-|
D-000000005555555577777777--------555555559999999977777777---------|

G--------------------------------------------------------------------------|
D--------------------------------------------------------------------------|
A-------------------------55555555------------------------5-5-5-5-5-5-5-5--|
D-000000005555555577777777--------555555559999999977777777-----------------|

Breakdown
G---------------------------------------------------------------------|
D---------------------------------------------------------------------|
A-------------------------------------------------5-55-55-55-5--------|
D-9-99-99-99-98-88-88-88-89-99-99-99-98-88-88-88-8------------5-55-55-|

G-----------------------------------------------------------------|
D-----------------------------------------------------------------|
A---------------------------------5-5-5-5-5-5-5-5-----------------|
D-9-9-9-9-9-9-9-9-8-8-8-8-8-8-8-8-----------------5-5-5-5-5-5-5-5-|

G-----------------------------------------------------------------|
D-----------------------------------------------------------------|
A---------------------------------5-5-5-5-5-5-5-5-----------------|
D-9-9-9-9-9-9-9-9-8-8-8-8-8-8-8-8-----------------5-5-5-5-5-5-5-5-|

G-----------------|
A-----------------|
D-----------------|
G-7-7-7-7-7-7-7-7-|

Ending
G-------------------------------------------------------------|
D-------------------------------------------------------------|
A-------------------------------------5-5-----------------5-5-|
D-7777777777777777-----0-0--5-5--7-7-------5-5--9-9--7-7------|

G---------------------------------------------|------------------------|
D---------------------------------------------|------------------------|
A----------------5-5-----------------5-5-5-5--|---------------5-5-5-5--|
D-0-0--5-5--7-7-------5-5--9-9--7-7-----------|-5-5--9-9--7-7----------|

G-------------|
D-------------|
A----------5~-|
D-5~-9~-7~----|

Comment it. Rate it.

            
            
Suggest correction
Creating personal tab
Creating personal tab
You can edit any tab online and save it as your Personal.

You can edit, replace or remove any tab part or add personal notes – all changes will be seen only by you.

Personal tabs can be accessed anytime from any device, even offline.
Learn more »
Give kudos to tab author, rate the tab!
1 2 3 4 5
comments
print report bad tab
guest
You may want to rate the tab now too:
select rating
Wanna post a correction for this tab? Suggest correction