Oops, an error
Loading. Please wait.

Theyre Not Horses Theyre Unicorns tab

version 1
version 1

Whole song

Interactive

by Bayside
3,108 views 1 this week
4 commentsread comments
1 2 3 4 5
x 5
add to favorites
×
Save as Personal and add changes to this tab that will be seen only by you. Learn more ›
×
You can save this tab as Personal to edit and correct it or add notes. All changes will be seen only by you. Learn more »
launch autoscroll
font size
0
reset
how to read this tab
guitar tuner
edit
Autoscroll
slow
fast
+/-
esc
set tempo
stop
this is a rough draft to get other people going on it cuz its the best song on the 
so i i know its not perfect but it sounds alright when you play along with it.

Guitar 1  Intro/verse
----------------------------------------------------------------------|
----------------------------------------------------------------------|
----10-10-10-10---10/---10--------------------------------------------|
--0--x--x--x--x-0--x/-7--x--8~~~-8~~~/--------------------------------|
--0--8--8--8--8-0--8/-7--8--8~~~-8~~~/--------------------------------|
--0-------------0-----7-----8~~~-8~~~/--------------------------------|

Pre-Chorus (very rough idea)

---------------------------------------|----------|
---------------------------------------|----------|
-------10/12/10--------10/12/10--------|-X2-------|
--8-8---x/-x/x----5-5---x/-x/x----00000|----0-0---|
--8-8---8/10/8----5-5---8/10/8----00000|----0-0---|
--8-8-------------5-5-------------00000|----0-0---|

Chorus
----------------------------------------------|
----------------------------------------------|
--7-------------7------6-7--------------------|
--7---5---8-----5--5---4-4--------------------|
--5---5---8-----5--5---4-4--------------------|
------5---8--------5--------------------------|

Post Chorus (leads into intro/verse)

-----------------------------------------|
-----------------------------------------|
--7-7--5-4-3---3--2----------------------|
--7-7--5-4-3---3--2-5--3-0---------------|
--5-4--3-2-1---1--0-5--3-0---------------|
--------------------5--3-0---------------|

Bridge (i dont know this part very well.)

--------------------------------------------------------|
--------------------------------------------------------|
------10-10---10-----------------10-10------------------|
-0-0---x--x-0--x-0---7h8p7---8-8--x--x-8-8--10-10-10----|X2
-0-0---8--8-0--8-0---7h8p7---8-8--8--8-8-8--10-10-10----|
-0-0--------0----0---7h8p7---8-8-------8-8--10-10-10----|

Breakdown (mostly base)

--------------------------------0--0---|
--------------------------------0--0---|
--------------------------------0--0---|
--8----7----0------XXX----------0--0---|
--8x4--7x4--0x8----XXX-(echo)---0--0---|
--8----7----0------XXX----------0--0---|


thats it. repeat these sections for what ever you need and thats the song. its not 
i know but it should be a good rough draft to get some GOOD tabbers to figure the 2nd guitar 
the right stuff for guitar 1 but yea. it sounds fine if you just play this too. -szember

            
            
Suggest correction
Creating personal tab
Creating personal tab
You can edit any tab online and save it as your Personal.

You can edit, replace or remove any tab part or add personal notes – all changes will be seen only by you.

Personal tabs can be accessed anytime from any device, even offline.
Learn more »
comments
print report bad tab
4 comments total. Showing first comments.
0 reply
shugo449 530 Mar 09, 2007 04:27 PM

good

0 reply
Alexishxc1337 368 Jun 11, 2007 07:33 PM

Really inaccurate.

0 reply
mylos64 10 Jan 25, 2008 11:43 AM

what is drop d =[
and can you play this on acoustic? prob not right>?

guest
Wanna post a correction for this tab? Suggest correction