Oops, an error
Loading. Please wait.

Winter tab

version 2
version 2

Whole song

by Bayside
33,853 views 12 this week
14 commentsread comments
1 2 3 4 5
x 10
add to favorites
×
Save as Personal and add changes to this tab that will be seen only by you. Learn more ›
×
You can save this tab as Personal to edit and correct it or add notes. All changes will be seen only by you. Learn more »
launch autoscroll
font size
0
reset
how to read this tab
guitar tuner
edit
Autoscroll
slow
fast
+/-
esc
set tempo
stop
-------------------------------------------------------------------------------
                             WINTER - Bayside
-------------------------------------------------------------------------------
Tabbed by: Alex Light
Email: alex_light@hotmail.com

Tuning: DROP B

Now I know you'll probably look at the tuning and say Id rather find a a tab that I can
quicker. TRY THE TUNING. Look it up online and tune your guitar to DROP B its well worth
(trust me this is my first tab outside of standard tuning). Its got such a nice sound 
its the only way to play this song. Especially for the F#* chord which is almost
to play in standard tuning which most of the other tabs miss in the chorus. The outro to 
chorus is in different octaves but sounds fine. RIP beatz.

These are the chord references for the song.

     D     G     Bm     A     Gm     F#*     A*   F#*    G*    Abar
C#|---2-----*-----2------0-------------2-----------------------------------------|
G#|---3-----3-----3------2------3------2-------------------------5---------------|
E-|---2-----4-----4------2------3------2-----------0------0------6---------------|
b-|---0-----*-----4------2------3------2------2----0------5------*---------------|
F#|---------5-----2------0------5------4------2----5------0------7---------------|
B-|--(0)----5-----------(*)-----5------4------2----4------5------7---------------|

Intro Solo
-------------------------------------------------------------|
-------------------------------------------------------------|
---11h12p11-----------14-----11h12p11-----------14/16/14-----|
--------------14--12-------------------14--12----------------|
-------------------------------------------------------------|
-------------------------------------------------------------|

------------------------------------------------------------------------|
------------------------------------------------------------------------|
----11h12p11----------14--------------11h12p11--------------------------|
--------------14--12-------12-12/14-------------14--12------------------|
-------------------------------------------------------12-12------------|
--------------------------------------------------------------14--12----|

Verse
  D               G
When Winter falls
                      Bm
Next year, I'll be holding on
   A                      D
To anything nailed down
                  G                           Bm
As for being patient, with fate and all, it's getting old.
         A
And my mind is slowly changing

Bridge
  Bm
I'm calling all my oldest friends,
         A
Saying "sorry for this mess we're in,"
        G         Gm
And I'm waiting, waiting
     Bm
For the Sun to come and melt this snow,
     A                               G         Gm
wash away the pain, and give me back control, control.

Chorus
    D
An angel got his wings,
            G                 F#             Bm
And we'll hold our heads up knowing that he's fine.
                     A*        F#*     G*    Abar     D
We'd all be lucky to have a love like that in a lifetime.


Verse
Should we still set his plate?
Should we still save his chair?
Should we still buy him gifts?
And if we don't, did we not care?

Bridge
It makes you think about the life you've led,
Shit you've done, things you've said.
And it's grounding, grounding.
I've been feeling three feet tall this month,
hardly indestructible.
But the snow melts, and the rhythm still goes on.

Chorus
An angel got his wings,
And we'll hold our heads up knowing that he's fine.
We'd all be lucky to have a love like that in a lifetime.
Friends stay side by side,
In life and death you've always stole my heart,
You'll always mean so much to me, it's hard to believe this

These nights in vans,
These nights in bars,
Don't mean a thing with empty hearts, with empty hearts.


RIff
C#|-----------------------------------------------|
G#|----------9-/-10-------------------------------|
E-|---------10-/-11-------------------------------|
b-|---------*-----*-------------------------------| X 2
F#|---------8--/--9-------------------------------|
B-|-----0-----------------------------------------|


Riff    G   Abar  Riff G  Abar  D

An angel got his wings,
And we'll hold our heads up knowing that he's fine.
We'd all be lucky to have a love like that in a lifetime.

Friends stay side by side,
In life and death you've always stole my heart,
You've always meant so much to me, it's hard to believe
So much to me, it's hard to believe
So much to me, it's hard to believe this.


Have Fun!
Shouts to the boys

            
            
Suggest correction
Creating personal tab
Creating personal tab
You can edit any tab online and save it as your Personal.

You can edit, replace or remove any tab part or add personal notes – all changes will be seen only by you.

Personal tabs can be accessed anytime from any device, even offline.
Learn more »
comments
print report bad tab
14 comments total. Showing first comments. show 1 bad comment
0 reply
NNoodleNose 270 Dec 10, 2007 10:05 AM

I will boutch for the tuning because my guitar teacher told me that he uses zach wylde strings, and it's tuned down to
b, same tuning for the acoustic version of masterpiece.

+3 reply
Xvendo. 10 Jun 17, 2008 12:48 PM

alex you're retarded there's no such thing as C flat...

guest
You may want to rate the tab now too:
select rating
Wanna post a correction for this tab? Suggest correction