Oops, an error
Loading. Please wait.

Winter tab

version 3
version 3

Whole song

by Bayside
11,392 views 1 this week
4 commentsread comments
1 2 3 4 5
x 3
add to favorites
×
Save as Personal and add changes to this tab that will be seen only by you. Learn more ›
×
You can save this tab as Personal to edit and correct it or add notes. All changes will be seen only by you. Learn more »
launch autoscroll
font size
0
reset
how to read this tab
guitar tuner
edit
Autoscroll
slow
fast
+/-
esc
set tempo
stop
Author
                WINTER: Bayside
This is my first tab, but I think I did a pretty good job on it. Not 100% but at least 98%. 

Standard Tuning:
  B    G#m    E    Em    F#
--1-----4-----0-----0----2-- 
--3-----4-----0-----0----2--
--3-----4-----1-----0----3--
--3-----6-----2-----2----4--
--1-----6-----2-----2----4--
--1-----4-----0-----0----2--


INTRO:
  B            G#m          E          F#
e----------------------------------------------------------|
B-----------7-----------797----------7--------454----------|
G---898-6-4-----898-6-4------898-6-4-----4-6------4--------|
D---------------------------------------------------4------|
A-----------------------------------------------------4----|
E-------------------------------------------------------2--|
OR:
e-----------2------------242---------2---------------------|
B---454-2-------454-2---------454-2------0-2-----454-------|
G---------4-----------4-------------4-------------4--------|
D---------------------------------------------------4------|
A-----------------------------------------------------4----|
E-------------------------------------------------------2--|

B
  When Winter falls 
E                    G#m
  Next year, I'll be holding on
     F#
  To anything nailed down
B                      E                        G#m
  As for being patient, with fate and all, it's getting old. 
         F#
  And my mind is slowly changing

      G#m
  I'm calling all my oldest friends,
          F#
  Saying "sorry for this mess we're in,"
          E        Em
  And I'm waiting, waiting
          G#m
  For the Sun to come and melt this snow,
        F#                                E        Em
  wash away the pain, and give me back control, control.

     B
  An angel got his wings, 
          E                 F#                G#m
  And we'll hold our heads up knowing that he's fine.
                      E                F#              B
  We'd all be lucky to have a love like that in a lifetime.

B
  Should we still set his plate?
E
  Should we still save his chair?
               G#m
  Should we still buy him gifts?
               F#
  And if we don't, did we not care?

                G#m
  It makes you think about the life you've led,
  F#
  Shit you've done, things you've said.
           E          Em
  And it's grounding, grounding.
             G#m
  I've been feeling three feet tall this month,

   F#
  hardly indestructible.
          E                    Em
  But the snow melts, and the rhythm still goes on.

     B
  An angel got his wings, 
            E                F#                G#m
  And we'll hold our heads up knowing that he's fine.
                      E               F#                  B
  We'd all be lucky to have a love like that in a lifetime.

  B
  Friends stay side by side,
     E                       F#           G#m
  In life and death you've always stole my heart,
                        E                F#              E
  You'll always mean so much to me, it's hard to believe this

                        B
  These nights in vans,
E                       B
  These nights in bars,
E              F#               G#m    E     F#     B
  Don't mean a thing with empty hearts, with empty hearts.

                                              1.___2._______________
    B                                     E   F#    F# 
e|----------------------------------------0---2---|-2--2-2-2-2-2-2-2-|
B|*----------------------------------56---0---2--*|-2--2-2-2-2-2-2-2-|
G|--------------------------------------6-1---3---|-3--3-3-3-3-3-3-3-|
D|----------------------------------------2---4---|-4--4-4-4-4-4-4-4-|
A|*----56-(6)(6)(6)(6)---56-(6)(6)--------2---4--*|-4--4-4-4-4-4-4-4-|
E|----------------------------------------0---2---|-2--2-2-2-2-2-2-2-|

B
  An angel got his wings, 
            E                F#                G#m
  And we'll hold our heads up knowing that he's fine.
                      E               F#               B
  We'd all be lucky to have a love like that in a lifetime.

  B
  Friends stay side by side,
     E                       F#           G#m
  In life and death you've always stole my heart,
                        E                F#              
  You'll always mean so much to me, it's hard to believe 
     E                F#
  So much to me, it's hard to believe
     E                F#                 B
  So much to me, it's hard to believe this.

    B                              
   -1--1--1-----
   --3--3--3----
   ---3--3--3---  Repeat and Fade to end...
   -------------
   -1-----------
   -------------






            
            
Suggest correction
Creating personal tab
Creating personal tab
You can edit any tab online and save it as your Personal.

You can edit, replace or remove any tab part or add personal notes – all changes will be seen only by you.

Personal tabs can be accessed anytime from any device, even offline.
Learn more »
Give kudos to tab author, rate the tab!
1 2 3 4 5
comments
print report bad tab
4 comments total. Showing first comments.
+2 reply
turncoat60% 10 Dec 26, 2008 03:20 PM

224442
instead of
113331

0 reply
jterrell 10 Feb 12, 2011 01:32 PM

e----------------------------------------------------------|
B----------------------------------------------------------|
G-8h9p8----11--898-------11/13--8h9p8------11-----8h9p8---
D------11-9----------11--9-----------11-9----9/11------11-9
A------------------------------------------------------
E---------------------------------------------------------|

that's how you can do it without messing around with going a little low on your neck.

0 reply
Benny89 10 Jul 29, 2011 01:32 PM

good cover but it doesnt sound right its too high the actual version is in drop b it sounds good but it sounds alot better drop tuned

guest
You may want to rate the tab now too:
select rating
Wanna post a correction for this tab? Suggest correction