Oops, an error
Loading. Please wait.

Fire Department bass

version 1
version 1

Whole song

363 views 1 this week
no commentswrite comment
1 2 3 4 5
3 more votes to show rating
add to favorites
×
Save as Personal and add changes to this tab that will be seen only by you. Learn more ›
×
You can save this tab as Personal to edit and correct it or add notes. All changes will be seen only by you. Learn more »
launch autoscroll
font size
0
reset
guitar tuner
edit
Autoscroll
slow
fast
+/-
esc
set tempo
stop
Difficulty
intermediate
Be Your Own Pet
Fire Department

This is a great song and there was no bass tabs for it so i tabed it. I just recently 
it out so i hope it shud be still fresh in my memory.

Enjoy!

Verse: X4

G |------------------------------------------------------------------------|
D |---------9-------9--------9-----------9-----2-----2------5------4-------|
A |------------------------------------------------------------------------|
E |--7-7-7---7-7-7----7-7-7-----7-7-7-7----0-0---0-0----3-3----2-2---------|

Chorus:

G |--------------------------------------------|
D |--------------------------------------------|
A |--------------------------------------------|
E |------0-0-0-3-5--5-5-5-4-7-7-7-7-7-7-7-7----|   X2

G |--------------------------------------------------------------------|
D |--------------------------------------------------------------------|
A |--------------------------------------------------------------------|
E |--8-8-8-8-8-8-8-8-8-7-7-7-7-7-7-7-7-8-8-8-8-8-8-8-8-—7—-7-—0--0-----|

Verse

Chorus

Bridge:

G |----------------------------------------------------|
D |----------------------------------------------------|
A |--4-7-4-7-4-7-4-7---7---7---7---7-------------------|
E |----------------------5---5---5---5-----------------|   X2

G |--------------------------------------------------------------------|
D |--------------------------------------------------------------------|
A |-4-4-7-7-4-4-7-7-4-4-7-7-4-4-7-7-----7-7-----7-7-----7-7-----7-7----|
E |---------------------------------5-5-----5-5---- 5-5-----5-5--------|  X2

Chorus X2

Outro:

G |------------------------------------------------------------|
D |------------------------------------------------------------|
A |------------------------------------------------------------|
E |--3-3-5-5--3-3-5-5—3-3-5-5—3-3-5-5--0-0--0-0--3-3--2-2------|

here do the " 3-3-5-5 "s quite fast. you'll figure it out when u play along to it.

end on:

G |-----------------|
D |-----------------|
A |-----------------|
E |--7-7------------|

Hope its clear enough for ya =]

            
            
Suggest correction
Creating personal tab
Creating personal tab
You can edit any tab online and save it as your Personal.

You can edit, replace or remove any tab part or add personal notes – all changes will be seen only by you.

Personal tabs can be accessed anytime from any device, even offline.
Learn more »
Give kudos to tab author, rate the tab!
1 2 3 4 5
comments
print report bad tab
guest
Wanna post a correction for this tab? Suggest correction