Oops, an error
Loading. Please wait.

Force Of Nature intro tab

version 1
version 1

Intro

4,185 views 15 this week
3 commentsread comments
1 2 3 4 5
x 4
add to favorites
×
Save as Personal and add changes to this tab that will be seen only by you. Learn more ›
×
You can save this tab as Personal to edit and correct it or add notes. All changes will be seen only by you. Learn more »
launch autoscroll
font size
0
reset
how to read this tab
guitar tuner
edit
Autoscroll
slow
fast
+/-
esc
set tempo
stop
Author
Difficulty
-------------------------------------------------------------------------------
                             Force of Nature, intro - Bea Miller
-------------------------------------------------------------------------------
Tabbed by: sngrffn
E-mail: Sean.griffin017@gmail.com

Tuning: E standard

e|----------3-------------3-------------3-------------3----------|
B|----------3-------------3-------------3-------------3----------|
G|------0-------------0-------------0-------------0--------------|
D|--------------------------------------------------- -----------|  x2
A|---------------------------------------------------------------|
E|----0-------------8-------------3------------10----------------| 


************************************

| /   slide up
| \   slide down
| h   hammer-on
| p   pull-off
| ~   vibrato
| +   harmonic
| x   Mute note
| b   Bend
| pb  Pre-bend
| br  Bend release
| pbr Pre-bend release
| brb Bend release bend

************************************

            
            
Suggest correction
Creating personal tab
Creating personal tab
You can edit any tab online and save it as your Personal.

You can edit, replace or remove any tab part or add personal notes – all changes will be seen only by you.

Personal tabs can be accessed anytime from any device, even offline.
Learn more »
comments
print report bad tab
3 comments total.
+1 reply
han246 138 Sep 25, 2015 07:38 AM

You have the correct notes but it is much easier if you play it like this:

e|----------3-------------3-------------3-------------3----------|
B|----------3-------------3-------------3-------------3----------|
G|------0-------------0-------------0-------------0--------------|
D|---------------------------------------------0-----------------| x2
A|------------------3--------------------------------------------|
E|----0---------------------------3------------------------------|

0 reply
Marianne2612 263 Sep 29, 2015 04:48 AM

Sorry, I didn't mean to thumb down your comment, I touched the wrong button, and now I can't fix it :(

0 reply
Marianne2612 263 Apr 27, 2016 08:21 AM

didn't like this contribution

guest
You may want to rate the tab now too:
select rating
Wanna post a correction for this tab? Suggest correction