Oops, an error
Loading. Please wait.

Norway intro tab

version 2
version 2

Intro

  • Used Different Notes and Patterns. Also found mult... Show more

Whole song

184 views 1 this week
1 commentread comment
1 2 3 4 5
x 3
add to favorites
×
Save as Personal and add changes to this tab that will be seen only by you. Learn more ›
×
You can save this tab as Personal to edit and correct it or add notes. All changes will be seen only by you. Learn more »
launch autoscroll
font size
0
reset
how to read this tab
guitar tuner
edit
Autoscroll
slow
fast
+/-
esc
set tempo
stop
Author
Unregistered
About this tab version
Used Different Notes and Patterns. Also found multiple ways to play it with either 1 or 2 guitar players. Accuracy is very close to the studio recording. Was this info helpful? Yes No

NOTE* This is actually a two guitar song. The intro would be as follows:

Guitar 1 Quarter Notes
e|-----------------|----------------|------------|------------------|
B|-----------------|----------------|------------|------------------|
G|-----------------|----------------|------------|------------------|
D|--12--12--12--12-|-10--10--10--10-|-8--8--8--8-|-10--10--10-10----|
A|-----------------|----------------|------------|------------------|
E|-----------------|----------------|------------|------------------|

Guitar 2 (instead of the 5th fret on the high e, you can play the 8th fret on the high e for variety)

e|----------5-----------5----------5------------5------------------|  
B|-------6-----------6----------6------------6---------------------|
G|---5h7--------5h7--------5h7----------5h7------------------------|
D|-----------------------------------------------------------------|
A|-----------------------------------------------------------------|
E|-----------------------------------------------------------------|

e|------5---------5----------5-------5-------------------------------|
B|----5---------5----------5------5----------------------------------|
G|--/5--------5----------5------5------------------------------------|
D|-------------------------------------------------------------------|
A|-------------------------------------------------------------------|
E|-------------------------------------------------------------------|

| /   Slide up
| h   Hammer-on




            
            
Suggest correction
Creating personal tab
Creating personal tab
You can edit any tab online and save it as your Personal.

You can edit, replace or remove any tab part or add personal notes – all changes will be seen only by you.

Personal tabs can be accessed anytime from any device, even offline.
Learn more »
Give kudos to tab author, rate the tab!
1 2 3 4 5
comments
print report bad tab
1 comment total.
0 reply
akirk93 64 Nov 06, 2016 05:16 AM, edited at 10:17 am

Not sure why this is not 5 stars, I put alot of time into getting this right. If you listen closely there are two guitar parts on the studio recording. Live is a different story and combines the patterns I wrote for one guitar only. If you can get the picking pattern down right this will sound great. The other tab on this site that has the full song has the verses/chorus is mostly correct, but the intro is definitely off. I believe this was rated down because of a disagreement with the poster of that tab. Let me know which tab for the intro sounds closer/ provide feedback to who you play it! Thanks for your time

guest
Wanna post a correction for this tab? Suggest correction