Oops, an error
Loading. Please wait.

Walk In The Park tab

version 1
version 1

Whole song

13,346 views 9 this week
2 commentsread comments
1 2 3 4 5
1 last vote to show rating
add to favorites
×
Save as Personal and add changes to this tab that will be seen only by you. Learn more ›
×
You can save this tab as Personal to edit and correct it or add notes. All changes will be seen only by you. Learn more »
launch autoscroll
font size
0
reset
how to read this tab
guitar tuner
edit
Autoscroll
slow
fast
+/-
esc
set tempo
stop
-------------------------------------------------------------------------------
                             Walk In The Park - Beach House
-------------------------------------------------------------------------------
Tabbed by: Elliot
Email: midiman0@gmail.com

Tuning: D# Tuning (Half-Step Down)
Pickup: Bridge
Effects: A little chorus and some reverb

Intro
eb|-------------------------------------------------------------------------|
Bb|-------------------------------------------------------------------------|
Gb|-------------------------------------------------------------------------|
Db|---6-8-6-8s3--6-8-6-8s11-----------------6-8-6-4s8---6-8-6-8s3--6-8-6-8--|
Ab|--------------------------9-11-13-11-9-6-----------6-------------------6-|
Eb|-------------------------------------------------------------------------|


Verse (You go for a walk in the park...)
eb|---6---6---6-----6---6---6-----6---6---6-----6---6---6-------------------|
Bb|----7----7--------7----7--------7----7--------7----7---------------------|
Gb|-----6-------------6-------------8-------------8-------------------------|
Db|-------------------------------------------------------------------------|
Ab|-------------------------------------------------------------------------|
Eb|-------------------------------------------------------------------------|

eb|---6---6---6-----6---6---6-----6---6---6-----6---6---6-------------------|
Bb|----6----6--------6----6--------7----7--------7----7---------------------|
Gb|-----6-------------6-------------8-------------8-------------------------|
Db|---------------------------------------------------------------------x3--|
Ab|-------------------------------------------------------------------------|
Eb|-------------------------------------------------------------------------|

Chorus 1 (In a matter of time...)
eb|-------------------------------------------------------------------------|
Bb|---~19~18~19~16~18~14~16~11--x5----~7~6-4--------------------------------|
Gb|-------------------------------------------------------------------------|
Db|-------------------------------------------------------------------------|
Ab|-------------------------------------------------------------------------|
Eb|-------------------------------------------------------------------------|

Bridge
eb|-------------------------------------------------------------------------|
Bb|-------------------------------------------------------------------------|
Gb|-------------------------------------------------------------------------|
Db|---6-8-6-8s3--6-8-6-8s11-----------------6-8-6-4s8---6-8-6-8s3--6-8-6-8--|
Ab|--------------------------9-11-13-11-9-6-----------6-------------------6-|
Eb|-------------------------------------------------------------------------|

Verse 2 (The face that you saw in the door...)
eb|---6---6---6-----6---6---6-----6---6---6-----6---6---6-------------------|
Bb|----7----7--------7----7--------7----7--------7----7---------------------|
Gb|-----6-------------6-------------8-------------8-------------------------|
Db|-------------------------------------------------------------------------|
Ab|-------------------------------------------------------------------------|
Eb|-------------------------------------------------------------------------|

eb|---6---6---6-----6---6---6-----6---6---6-----6---6---6-------------------|
Bb|----6----6--------6----6--------7----7--------7----7---------------------|
Gb|-----6-------------6-------------8-------------8-------------------------|
Db|---------------------------------------------------------------------x3--|
Ab|-------------------------------------------------------------------------|
Eb|-------------------------------------------------------------------------|

Chorus 2 (In a matter of time...)
eb|-------------------------------------------------------------------------|
Bb|---~19~18~19~16~18~14~16~11--x5------------------------------------------|
Gb|-------------------------------------------------------------------------|
Db|-------------------------------------------------------------------------|
Ab|-------------------------------------------------------------------------|
Eb|-------------------------------------------------------------------------|

Outro (More, you want more...)
eb|---x---------------------------------------------------------------------|
Bb|---x---------------------------------------------------------------------|
Gb|---x---**scratch softly while slowly moving higher**---------------------|
Db|---x---------------------------------------------------------------------|
Ab|---x---------------------------------------------------------------------|
Eb|---x---------------------------------------------------------------------|

       (After the second time Victoria sings 'More, only time can know me')
     eb|--------------------------------------------------------------------|
     Bb|--------14----14-----------13----13---------------------------------|
     Gb|-----------13-----x4----------13-----x4-----**repeat till end**-----|
     Db|-----15-----------------15------------------------------------------|
     Ab|--------------------------------------------------------------------|
     Eb|--------------------------------------------------------------------|


************************************

| /   slide up
| \   slide down
| h   hammer-on
| p   pull-off
| ~   vibrato
| +   harmonic
| x   Mute note
| b   Bend
| pb  Pre-bend
| br  Bend release
| pbr Pre-bend release
| brb Bend release bend

************************************

            
            
Suggest correction
Creating personal tab
Creating personal tab
You can edit any tab online and save it as your Personal.

You can edit, replace or remove any tab part or add personal notes – all changes will be seen only by you.

Personal tabs can be accessed anytime from any device, even offline.
Learn more »
Give kudos to tab author, rate the tab!
1 2 3 4 5
comments
print report bad tab
2 comments total.
0 reply
MLIola 10 Apr 10, 2017 01:09 AM

definitely in standard not e falt

0 reply
francois.cardin 100 Oct 07, 2017 12:30 PM, edited at 04:31 pm

You can also play this song in standard tuning. But the tab itself is accurate, so you could play it in standard tuning, just lower all notes by one fret in that case.Also, in the chorus, the last set of notes (of the 4 sets in total) is sightly off : it goes e6 B7 G6 e6 B7 e6, when it should actually go e6 B7 G8 e6 B7 e6.And each set of notes in the chorus should be played twice.

guest
Wanna post a correction for this tab? Suggest correction