Oops, an error
Loading. Please wait.

Giants bass

version 2
version 2

Whole song

167 views 1 this week
no commentswrite comment
1 2 3 4 5
2 more votes to show rating
add to favorites
×
Save as Personal and add changes to this tab that will be seen only by you. Learn more ›
×
You can save this tab as Personal to edit and correct it or add notes. All changes will be seen only by you. Learn more »
launch autoscroll
font size
0
reset
guitar tuner
edit
Autoscroll
slow
fast
+/-
esc
set tempo
stop
Author
Difficulty
Listen to the song for the timing. Sometimes the
verses or the chorus may end sooner or the final
notes will not be played.

Also, on the bridge, the number of times you play
each note may not be exact, but use it as a guideline.
When the vocals come in, the notes at times seem
to match with the rhythm of the singing.



[VERSE 1]
   F               C               G
G|-------------------------------------------------------------------|
D|-------------------------------------------------------------7-9---|
A|-----------------------------------------------------10-8-10-------|  X4
E|---------------------3-3-3(3)5-------------------------------------|
   1   +   2   +   3   +   4   +   1   +   2   +   3   +     4   +   


[CHORUS 1]
   F               Am              G
G|----------------------------------------------------------------|
D|----------------------------------------------------------------|
A|----------------------------------------------------------------|  X4
E|-1-----1-----5-----5-------------3-----3-----3-----3------------|
   1   +   2   +   3   +   4   +   1   +   2   +   3   +   4   +   


[VERSE 2]
   F               C               G
G|-------------------------------------------------------------------|
D|-------------------------------------------------------------7-9---|
A|-----------------------------------------------------10-8-10-------|  X4
E|---------------------3-3-3(3)5-------------------------------------|


[CHORUS 2]
   F               Am              G
G|----------------------------------------------------------------|
D|----------------------------------------------------------------|
A|----------------------------------------------------------------|  X4
E|-1-----1-----5-----5-------------3-----3-----3-----3------------|


*The timing into the bridge is tricky*

[BRIDGE]
   G                             Dm
G|------------------------------------------------------------|
D|------------------------------------------------------------|
A|-10--10-10--10-10-10-10-10h12-------------------------10h12-|
E|-------------------------------10--10-10--10-10-10-10-------| 

  (Dm)                          (Dm)
G|----------------------------------------------------------------|
D|----------------------------------------------------------------|
A|------------------------10h12------------------------------8h10-|
E|-10--10-10--10-10-10-10--------10--10-10--10-10-10-10-8h10------|

   G                            Dm
G|------------------------------------------------------------|
D|------------------------------------------------------------|
A|-10--10-10--10-10-10-10--8\10-8-----7---------------10h12---|
E|-------------------------------------------10---------------| 

  (Dm)                          (Dm)
G|-------------------------------------------------------------------|
D|-------------------------------------------------------------------|
A|------------------------10h12------------------------------8----10-|
E|-10--10-10--10-10-10-10--------10--10-10--10-10-10-10-8h10---10----|

   G                           Dm
G|------------------------------------------------------------|
D|------------------------------------------------------------|
A|-10---10-10--10-10---10-------------------------------------|
E|-----------------------------10---10--10-10-10--10---10-----| 
   Pick up the perfect card    Slip in-to smiling wild-ly

  (Dm)                         (Dm)
G|------------------------------------------------------------|
D|------------------------------------------------------------|
A|-------------------------------------------------------8----|
E|-10-10--10--10---10---10------10--10-10---10-10---8h10---10-| 
   Af-ter the rest have gone    We  be-come be-yond timeless

   G                           Dm
G|-------------------------------------------------------------|
D|-------------------------------------------------------------|
A|-10--------------------8\10--8------7------------------------|
E|-----------------------------------------10---10----10--10---| 
   Give you everything...      Soon...          house and home

  (Dm)                                    (Dm)
G|------------------------------------------------------------|
D|------------------------------------------------------------|
A|------------------------------------------------------------|
E|-------10--10-10---10-10----10------------------------------| 
         Up  on the  se-venth floor        I know you love me...


[CHORUS 3 & 4]

No playing for 4 measures.

   F               Am              G
G|----------------------------------------------------------------|
D|----------------------------------------------------------------|
A|----------------------------------------------------------------|  X4
E|-1-----1-----5-----5-------------3-----3-----3-----3------------|

            
            
Suggest correction
Creating personal tab
Creating personal tab
You can edit any tab online and save it as your Personal.

You can edit, replace or remove any tab part or add personal notes – all changes will be seen only by you.

Personal tabs can be accessed anytime from any device, even offline.
Learn more »
Give kudos to tab author, rate the tab!
1 2 3 4 5
comments
print report bad tab
guest
You may want to rate the tab now too:
select rating
Wanna post a correction for this tab? Suggest correction