Oops, an error
Loading. Please wait.

Above The Clouds Of Pompeii tab

version 2
version 2

Whole song

2,335 views 21 this week
no commentswrite comment
1 2 3 4 5
x 7
add to favorites
×
Save as Personal and add changes to this tab that will be seen only by you. Learn more ›
×
You can save this tab as Personal to edit and correct it or add notes. All changes will be seen only by you. Learn more »
launch autoscroll
font size
0
reset
how to read this tab
guitar tuner
edit
Autoscroll
slow
fast
+/-
esc
set tempo
stop
Standard Tuning

Capo on 4th


thumb on the A
Index on the G
Middle on the B
Ring on the e

For the notes for the whole song your index stays on the 1st fret B string

I made it into 4 Parts so you can learn each part separately and then just put them all 
together in order
part 1,2,3,4


           First Part
e|----------------------0----------------------------------------------------------|
B|---------1------3------------3-----1---------------------------------------------|
G|------0------------0---------0-----0---------------------------------------------|
D|---------------------------------------------------------------------------------|
A|---3---------3-----------3------3------------------------------------------------|
E|---------------------------------------------------------------------------------|
           Second Part
e|----------------------0----------------------------------------------------------|
B|---------1------3------------3-----1---------------------------------------------|
G|------2------------2---------2-----2---------------------------------------------|
D|---0---------0-----------0------0------------------------------------------------|
A|---------------------------------------------------------------------------------|
E|---------------------------------------------------------------------------------|
           Third Part
e|----------------------0----------------------------------------------------------|
B|---------1------3------------3-----1---------------------------------------------|
G|------0------------0---------0-----0---------------------------------------------|
D|---------------------------------------------------------------------------------|
A|---0---------0-----------0------0------------------------------------------------|
E|---------------------------------------------------------------------------------|
           Fourth Part
e|----------------------0----------------------------------------------------------|
B|---------1------3------------3-----1---------------------------------------------|
G|------0------------0---------0-----0---------------------------------------------|
D|---3---------3-----------3------3------------------------------------------------|
A|---------------------------------------------------------------------------------|
E|---------------------------------------------------------------------------------|


Then for the Chords after finger picking For Chorus

C  - 032010
Dm - x00231  or you can play x00210 to make it easier it sounds good too
Am - x02210
F  - 133211

            
            
Suggest correction
Creating personal tab
Creating personal tab
You can edit any tab online and save it as your Personal.

You can edit, replace or remove any tab part or add personal notes – all changes will be seen only by you.

Personal tabs can be accessed anytime from any device, even offline.
Learn more »
comments
print report bad tab
guest
You may want to rate the tab now too:
select rating
Wanna post a correction for this tab? Suggest correction