Oops, an error
Loading. Please wait.

Aglio E Olio album tab

142 views 3 this week
no commentswrite comment
1 2 3 4 5
2 more votes to show rating
add to favorites
×
Save as Personal and add changes to this tab that will be seen only by you. Learn more ›
×
You can save this tab as Personal to edit and correct it or add notes. All changes will be seen only by you. Learn more »
launch autoscroll
font size
0
reset
how to read this tab
guitar tuner
edit
Autoscroll
slow
fast
+/-
esc
set tempo
stop
-----------------------------------------------------------------------------
BRAND NEW
-----------------------------------------------------------------------------

e|-------------------------------------------------|
B|-------------------------------------------------|
G|-5-5-5-6-6-6-5--5-5-6-6-5-5-5-6-6-6-5-5--4-4-3-3-|
D|-5-5-5-6-6-6-5--5-5-6-6-5-5-5-6-6-6-5-5--4-4-3-3-| x4
A|-3-3-3-4-4-4-3--3-3-4-4-3-3-3-4-4-4-3-3--2-2-1-1-|
E|-3-3-3-4-4-4-3--3-3-4-4-3-3-3-4-4-4-3-3--2-2-1-1-|

e|--------------|
B|--------------|
G|--------------|
D|-4------------|
A|-4-(Ring out)-|
E|-2------------|

e|-------------------------------------------------|
B|-------------------------------------------------|
G|-5-5-5-6-6-6-5--5-5-6-6-5-5-5-6-6-6-5-5--4-4-3-3-|
D|-5-5-5-6-6-6-5--5-5-6-6-5-5-5-6-6-6-5-5--4-4-3-3-| x4
A|-3-3-3-4-4-4-3--3-3-4-4-3-3-3-4-4-4-3-3--2-2-1-1-|
E|-3-3-3-4-4-4-3--3-3-4-4-3-3-3-4-4-4-3-3--2-2-1-1-|

e|------------------|
B|------------------|
G|------------------|
D|-4--4-4-x-x-5-5-5-| x2
A|-4--4-4-x-x-5-5-5-|
E|-2--2-2-x-x-3-3-3-|

e|----------------------------------------------------------------------------------------------------------|
B|----------------------------------------------------------------------------------------------------------|
G|-15^-15^--12--12--12--12-1414141414-1212121212---12--12-14-171717171717\1616\1515\1414\1313\1212\1111-etc-|
D|------------14--14--14-------------------------14--14-----------------------------------------------------|
A|----------------------------------------------------------------------------------------------------------|
E|----------------------------------------------------------------------------------------------------------|

e|--------------|
B|--------------|
G|--------------|
D|-4------------|
A|-4-(Ring out)-|
E|-2------------|

e|-------------------------------------------------|
B|-------------------------------------------------|
G|-5-5-5-6-6-6-5--5-5-6-6-5-5-5-6-6-6-5-5--4-4-3-3-|
D|-5-5-5-6-6-6-5--5-5-6-6-5-5-5-6-6-6-5-5--4-4-3-3-| x3
A|-3-3-3-4-4-4-3--3-3-4-4-3-3-3-4-4-4-3-3--2-2-1-1-|
E|-3-3-3-4-4-4-3--3-3-4-4-3-3-3-4-4-4-3-3--2-2-1-1-|

e|---|
B|---|
G|---|
D|-4-|
A|-4-|
E|-2-|



-------------------------------------------------------------------------
DEAL WITH IT
-------------------------------------------------------------------------

PH = Pinched Harmonic
^ = Bend up
/ = slide

e|---------------------------------------|
B|---------------------------------------|
G|-14^-----------------------------------|
D|---------------------------------------|
A|---------------------------------------|
E|---------------------------------------|

Very gradually keep bending up this note

e|---------------------------|
B|---------------------------|
G|---------------------------|
D|-3------------2------------|
A|-3-(Ring out)-2-(Ring out)-|
E|-1------------0------------|

e|---------------------------------------|
B|---------------------------------------|
G|-8--8-888-8-8-8-8-8-8------------------|
D|-8--8-888-8-8-8-8-8-8-4-4-444-5-55-555-| x4
A|-6--6-666-6-6-6-6-6-6-4-4-444-5-55-555-|
E|----------------------2-2-222-3-33-333-|

e|--------------------------------------------------|
B|--------------------------------------------------|
G|-----8-8-------8-8--------------------------------|
D|-9-9-8-8-9-9-9-8-8-9-11-11-111111-10-10-10-101010-| x3
A|-9-9-6-6-9-9-9-6-6-9-11-11-111111-10-10-10-101010-|
E|-7-7-----7-7-7-----7-9--9--9-9-9--8--8--8--8-8-8--|

e|---------------------|------- x2 -------------------|------------------------------|
B|---------------------|------------------------------|------------------------------|
G|-----8-8-------8-8---|-11-11-111111-10-10-10-101010-|-9-9-999-8-8-8-888-9-9-999-11-|
D|-9-9-8-8-9-9-9-8-8-9-|-11-11-111111-10-10-10-101010-|-9-9-999-8-8-8-888-9-9-999-11-| x1
A|-9-9-6-6-9-9-9-6-6-9-|-9--9--9-9-9--8--8--8--8-8-8--|-7-7-777-6-6-6-666-7-7-777-9--|
E|-7-7-----7-7-7-----7-|------------------------------|------------------------------|

Repeat all sections after ring out again.

e|---------------------------------------------------------------|
B|---------------------------------------------------------------|
G|---------------------------1/2/3/4/etc/12-noise-12-14-12-14-12-|
D|-2------------2------------------------------------------------|
A|-2-(Ring out)-2-(Ring out)-------------------------------------|
E|-0------------0------------------------------------------------|

solo

e|-----------------------------------------------------------------------------------------------------------|
B|-----------------------------------------------------------------------------------12^--12^--12^--12^--12^-|
G|-15^--15^-16p14-12----12-12PH----12-14-14----------------------------12----12-15^--15^--15^--15^--15^--15^-|
D|-------------------14---------14----------12-14--------12---12h13h14----14---------------------------------|
A|-------------------------------------------------12-14-----------------------------------------------------|
E|-----------------------------------------------------------------------------------------------------------|

Ring out last bend



--------------------------------------------------------------------------
BELIEVE ME
--------------------------------------------------------------------------

* = palm mute

e|---------------------------------|
B|---------------------------------|
G|---------------------------------|
D|---------------------------------| x3
A|-7-7-7-7-8-8-8-8-6-6-6-6-6-6-6-6-|
E|-5-5-5-5-6-6-6-6-4-4-4-4-4-4-4-4-|
   * * * * * * * * * * * * * * * *

e|---------------------------------|
B|---------------------------------|
G|---------------------------------| 
D|-7-7-7-7-8-8-8-8-6-6-6-6-6-6-6-6-| 
A|-7-7-7-7-8-8-8-8-6-6-6-6-6-6-6-6-|
E|-5-5-5-5-6-6-6-6-4-4-4-4-4-4-4-4-|

e|------ x4 -------|--------------------------------------------------------------|
B|-----------------|--------------------------------------------------------------|
G|-----------------|--------------------------------------------------------------|
D|-7-7-7-5-5-5-5-5-|-4-4-4-4-4-4-4-4-9-9-9-9-9-9-9-9-4-4-4-4-4-4-4-4-8--9--7--7-7-| 
A|-7-7-7-5-5-5-5-5-|-4-4-4-4-4-4-4-4-9-9-9-9-9-9-9-9-4-4-4-4-4-4-4-4-8--9--7--7-7-|
E|-5-5-5-3-3-3-3-3-|-2-2-2-2-2-2-2-2-7-7-7-7-7-7-7-7-2-2-2-2-2-2-2-2-6--7--5--5-5-|

e|-----------------------------------------------------------------|
B|-----------------------------------------------------------------|
G|-----------------------------------------------------------------|
D|-8--9--7--7-7-7-8--9--7--7-7-7-8--9--7--7-7-7-8--9--7------------| 
A|-8--9--7--7-7-7-8--9--7--7-7-7-8--9--7--7-7-7-8--9--7-(Ring out)-|
E|-6--7--5--5-5-5-6--7--5--5-5-5-6--7--5--5-5-5-6--7--5------------|

Repeat all of it again.



-------------------------------------------------------------------------
NERVOUS ASSISTANT
-------------------------------------------------------------------------

e|---------------|
B|---------------|
G|---------------|
D|------7-7-6-66-|
A|-bass-5-5-4-44-|
E|---------------|

e|----------------------------------|
B|----------------------------------|
G|----------------------------------|
D|-------------------------7-7-6-66-| x3
A|-7-7-9-9-7-7-9-9-7-7-9-9-5-5-4-44-|
E|-5-5-7-7-5-5-7-7-5-5-7-7----------|

e|-------------------------------------------------------------------------------|
B|-------------------------------------------------------------------------------|
G|-------------------------------------------------------------------------------|
D|-------------------------------------------------------------------------------|
A|-10-10-10-10-10-10-10-10-10-10-10-10-10-10-10-10-9-9-9-9-9-9-9-9-8-8-8-8-7--4--|
E|-8--8--8--8--8--8--8--8--8--8--8--8--8--8--8--8--7-7-7-7-7-7-7-7-6-6-6-6-5--2--|

e|----------------------------------|
B|----------------------------------|
G|----------------------------------|
D|-------------------------7-7-6-66-| x4
A|-7-7-9-9-7-7-9-9-7-7-9-9-5-5-4-44-|
E|-5-5-7-7-5-5-7-7-5-5-7-7----------|

e|---------------------------------------------------------|
B|---------------------------------------------------------|
G|---------------------------------------------------------|
D|---------------------------------------------------------|
A|-10-10-101010-10-10-10-10-101010-10-10-9-9-999-9-9-7--4--|
E|-8--8--8-8-8--8--8--8--8--8-8-8--8--8--7-7-777-7-7-5--2--|

e|---------|
B|---------|
G|---------|
D|---------| x8
A|-5-5-7-7-|
E|-3-3-5-5-|



-----------------------------------------------------------------------------
SQUARE WAVE IN UNISON
-----------------------------------------------------------------------------

e|-----------------------------------------------------------------|
B|------------------9--------------9----------------9--------------|
G|------12--12--12-----12--12--12-----12------1212-----12--12--12--|
D|-----------------------------------------------------------------|
A|-bass----------------------------------bass----------------------|
E|-----------------------------------------------------------------|

e|-----------------------------------------------------------------|
B|-----------------------------------------------------------------|
G|-10-10-10-9-9-8-8-7-7--7-7-7-7-7-9-9-9-9-8-8-8-8-7-7-7-7-7-7-7-7-|
D|-10-10-10-9-9-8-8-7-7--7-7-7-7-7-9-9-9-9-8-8-8-8-7-7-7-7-7-7-7-7-|
A|-8--8--8--7-7-6-6-5-5--5-5-5-5-5-7-7-7-7-6-6-6-6-5-5-5-5-5-5-5-5-|
E|-----------------------------------------------------------------|

e|------------------------------------------------------|
B|------------------------------------------------------|
G|------------------------------------------------------|
D|-5--7-7-7-7-7-7-7-5--7-7-7-7-7-7-7-7-7-7-7-7-7-7-5--7-|
A|-5--7-7-7-7-7-7-7-5--7-7-7-7-7-7-7-7-7-7-7-7-7-7-5--7-|
E|-3--5-5-5-5-5-5-5-3--5-5-5-5-5-5-5-5-5-5-5-5-5-5-3--5-|

Just bass

e|-------------------------------------------------------------------|
B|-------------------------------------------------------------------|
G|-8-7-7-7-7-7-7-6-6-5-5-5-5-5-5-5-5-7-7-7-7-6-6-6-6-5-5-5-5-5-5-5-5-|
D|-8-7-7-7-7-7-7-6-6-5-5-5-5-5-5-5-5-7-7-7-7-6-6-6-6-5-5-5-5-5-5-5-5-|
A|-6-5-5-5-5-5-5-4-4-3-3-3-3-3-3-3-3-5-5-5-5-4-4-4-4-3-3-3-3-3-3-3-3-|
E|-------------------------------------------------------------------|


e|------------------------------------------------------|
B|------------------------------------------------------|
G|------------------------------------------------------|
D|-5--7-7-7-7-7-7-7-5--7-7-7-7-7-7-7-7-7-7-7-7-7-7-5--7-|
A|-5--7-7-7-7-7-7-7-5--7-7-7-7-7-7-7-7-7-7-7-7-7-7-5--7-|
E|-3--5-5-5-5-5-5-5-3--5-5-5-5-5-5-5-5-5-5-5-5-5-5-3--5-|



--------------------------------------------------------------------------
YOU CATCH A BAD ONE
--------------------------------------------------------------------------

Due to the strange timing, this is a deceptively difficult song to play.

e|------------------------------|
B|------------------------------|
G|------------------------------|
D|-3h4h5-4-5-4-5-4-3------------|
A|-----------------3-(Ring out)-|
E|-----------------1------------|

e|-------------------|
B|-------------------|
G|-------5--6--6/7---|
D|-8--8--5--6--6/7---| x3
A|-8--8--3--4--4/5---|
E|-6--6--------------|

e|-----------------------------------------|
B|-----------------------------------------|
G|-------------------------------5--6--6/7-|
D|-8--8--7-7-7-7-7-7-7-7-5-5-5-5-5--6--6/7-| 
A|-8--8--7-7-7-7-7-7-7-7-5-5-5-5-3--4--4/5-|
E|-6--6--5-5-5-5-5-5-5-5-3-3-3-3-----------|

e|----------------------------------|
B|----------------------------------|
G|------------------------5--6--6/7-|
D|--7-7-7-7-7-7-7-5-5-5-5-5--6--6/7-| x2
A|--7-7-7-7-7-7-7-5-5-5-5-3--4--4/5-|
E|--5-5-5-5-5-5-5-3-3-3-3-----------|

e|-----------------------------------------------------|
B|-----------------------------------------------------|
G|-------------------------5--6--7--8--9--10--11--12---|
D|--7-7-7-7-7-7-7-55-5-5-5-----------------------------|
A|--7-7-7-7-7-7-7-55-5-5-5-5--6--7--8--9--10--11--12---|
E|--5-5-5-5-5-5-5-33-3-3-3-3--4--5--6--7--8---9---10---|

drums + slight feedback

e|---------------------------------------------------------------------------|
B|---------------------------------------------------------------------------|
G|-10--11--12-12-------5--6--6/7---------5--6--6/7---------5--6--6/7---------|
D|---------------8--8--5--6--6/7---8--8--5--4--6/7---8--8--5--6--6/7---8--8--|
A|-10--11--12-12-8--8--3--4--4/5---8--8--3--4--4/5---8--8--3--4--4/5---8--8--|
E|-8---9---10-10-6--6--------------6--8--------------6--6--------------6--6--|

e|-------------------------------------|
B|------------------------888-999-1010-|
G|-------------------------------------|
D|--7-7-7-7-7-7-7-5-5-5-5--------------| 
A|--7-7-7-7-7-7-7-5-5-5-5--------------|
E|--5-5-5-5-5-5-5-3-3-3-3--------------|

e|----------------------------------|
B|----------------------------------|
G|------------------------5--6--6/7-|
D|--7-7-7-7-7-7-7-5-5-5-5-5--6--6/7-| x2
A|--7-7-7-7-7-7-7-5-5-5-5-3--4--4/5-|
E|--5-5-5-5-5-5-5-3-3-3-3-----------|

e|-----------------------|
B|-----------------------|
G|-----------------------|
D|--7-7-7-7-7-7-7-55-5-5-|
A|--7-7-7-7-7-7-7-55-5-5-|
E|--5-5-5-5-5-5-5-33-3-3-|


----------------------------------------------------------------------------
I CAN'T THINK STRAIGHT
----------------------------------------------------------------------------

* = Palm mute

e|-------------------------------------------------|
B|-------------------------------------------------|
G|-------------------------------------------------|
D|-------------------7-7-6-------------------8-8-8-|
A|-6-8-8-6-8-8-6-8-8-5-5-4-6-8-8-6-8-8-6-8-8-6-6-6-|
E|-4-6-6-4-6-6-4-6-8-------4-6-6-4-6-6-4-6-6-------|

e|----------------------------------------------------------------------|
B|----------------------------------------------------------------------|
G|-------------------------------------3/4/5/6/7/8/9/10/11/12/13/14/15--|
D|-------------------7-7-6----------------------------------------------|
A|-6-8-8-6-8-8-6-8-8-5-5-4-6-8-8-6-8-8----------------------------------|
E|-4-6-6-4-6-6-4-6-8-------4-6-6-4-6-6----------------------------------|

e|-------------------------------------------------|
B|-------------------------------------------------|
G|-------------------------------------------------|
D|-------------------7-7-6-------------------8-8-8-| x2
A|-6-8-8-6-8-8-6-8-8-5-5-4-6-8-8-6-8-8-6-8-8-6-6-6-|
E|-4-6-6-4-6-6-4-6-8-------4-6-6-4-6-6-4-6-6-------|

e|-----------------------------------------------------------|
B|-----------------------------------------------------------|
G|-----------------------------------------------------------|
D|-5-5-5-5-5-5-5-5-5-5-5-5-5-5-5-5-5-5-5-5-5-5-5-5-5-5-5-5-5-|
A|-3-3-3-3-3-3-3-3-3-3-3-3-3-3-3-3-3-3-3-3-3-3-3-3-3-3-3-3-3-|
E|-----------------------------------------------------------|

Repeat last two sections again

e|-----------------------------|
B|-----------------------------|
G|-----------------------------|
D|-------4--4------------------| x5
A|-3--3-------------5--5-4h5p4-|
E|-------------6-6-------------|

e|---------------------------------------------------------------|
B|---------------------------------------------------------------|
G|---------------------------------------------------------------|
D|-----------------4-4-4-4-4-4-4-4-------------------------------|
A|-3-3-3-3-3-3-3-3---------------------------------5--------7--8-|
E|---------------------------------6-6-6-6-6-6-6-6----------5--6-|
   * * * * * * * * * * * * * * * * * * * * * * * *



---------------------------------------------------------------------------
I WANT SOME
---------------------------------------------------------------------------

* = Palm mute

e|---------------------------------------------------------------------------|
B|---------------------------------------------------------------------------|
G|---------------------------------------999-888-77777777-4-5555555555555555-|
D|----------------------4444444444444444-777-666-55555555-2-3333333333333333-| x2
A|-555-444-222222222222-2222222222222222-------------------------------------|
E|-333-222-000000000000------------------------------------------------------|

e|---------------------------------------------------------------------|
B|---------------------------------------------------------------------|
G|---------------------------------------------------------------------|
D|-777777777777-6666---------------------------------------------------| x2
A|-555555555555-4444-7777777777777777-55555555555555555555555555555555-|
E|-------------------5555555555555555-33333333333333333333333333333333-|

e|---------------------------------------------------------------------------|
B|---------------------------------------------------------------------------|
G|---------------------------------------999-888-77777777-4-5555555555555555-|
D|----------------------4444444444444444-777-666-55555555-2-3333333333333333-| x2
A|-555-444-222222222222-2222222222222222-------------------------------------|
E|-333-222-000000000000------------------------------------------------------|

e|---------------------------------------------------------------------|
B|---------------------------------------------------------------------|
G|---------------------------------------------------------------------|
D|-777777777777-6666---------------------------------------------------| 
A|-555555555555-4444-7777777777777777-55555555555555555555555555555555-|
E|-------------------5555555555555555-33333333333333333333333333333333-|

e|---------------------------------------------------------------------|
B|---------------------------------------------------------------------|
G|---------------------------------------------------------------------|
D|-777777777777-6666---------------------------------------------------| 
A|-555555555555-4444-7777777777777777-55555555555555555555555555555555-|
E|-------------------5555555555555555-33333333333333333333333333333333-|
                                      ********************************

e|------------------------|
B|------------------------|
G|------------------------|
D|-2--2-------------------| x7
A|-2--2-(Ring out)--noise-|
E|-0--0-------------------|

            
            
Suggest correction
Creating personal tab
Creating personal tab
You can edit any tab online and save it as your Personal.

You can edit, replace or remove any tab part or add personal notes – all changes will be seen only by you.

Personal tabs can be accessed anytime from any device, even offline.
Learn more »
Give kudos to tab author, rate the tab!
1 2 3 4 5
comments
print report bad tab
guest
You may want to rate the tab now too:
select rating
Wanna post a correction for this tab? Suggest correction