Oops, an error
Loading. Please wait.

Tonight Tonight Tonight tab

version 1
version 1

Whole song

Interactive

21,142 views 3 this week
no commentswrite comment
1 2 3 4 5
x 3
add to favorites
×
Save as Personal and add changes to this tab that will be seen only by you. Learn more ›
×
You can save this tab as Personal to edit and correct it or add notes. All changes will be seen only by you. Learn more »
launch autoscroll
font size
0
reset
how to read this tab
guitar tuner
edit
Autoscroll
slow
fast
+/-
esc
set tempo
stop
Author
Guitar1:

e|---------------------------------|
B|---------------------------------|
G|---5-5-5-5-5--5-5-5-5-5--5-5-5---|
D|---5-5-5-5-5--5-5-5-5-5--5-5-5---|
A|---3-3-3-3-3--3-3-3-3-3--3-3-3---|
E|---------------------------------| 3x

e|---------------|
B|---------------|
G|---5-5-5-5-5---|
D|---5-5-5-5-5---|
A|---3-3-3-3-3---|
E|---------------|

Wake up with yawn, it's stuning...
e|-------------------------|
B|-------------------------|
G|---5-----5---5---5---5---|
D|-------------------------|
A|---3-----3---2---3---2---|
E|-------------------------| 3x

e|-------------------------|
B|-------------------------|
G|---5-----5---5---5---7---|
D|-------------------------|
A|---3-----3---2---3---5---|
E|-------------------------|

As godamn DJ shatered...
e|-------------------------|
B|-------------------------|
G|---5-----5---5---5---5---|
D|-------------------------|
A|---3-----3---2---3---2---|
E|-------------------------| 3x

e|--------------------------------|
B|--------------------------------|
G|---5-----5---6---6---6---6--6---|
D|-------------6---6---6---6--6---|
A|---3-----3---4---4---4---4--4---|
E|--------------------------------|

Tonight love is rationed...
e|-----------------------------------|
B|-----------------------------------|
G|---5-------5-------2---------------|
D|---5---3---5---3---2---2---3---6---|
A|---3---3---3---3---0---2---3---6---|
E|-------1-------1-------0---1---4---|


Repeate once /\
*Before the second refrain it doesn't muffle the strings

She's a shooting star. Good night...
e|-----------3---0---------3-0---3slide5-5-5-5slide3---|
B|-----0--1--------------1-------3slide5-5-5-5slide3---|
G|---------------------2-------------------------------|
D|-------------------3---------------------------------|
A|---0-------------------------------------------------|
E|-----------------------------------------------------|

She's a shooting star. Good-bye...
e|-----------3---0---------3-0---|
B|-----0--1--------------1-------|
G|---------------------2---------|
D|-------------------3-----------|
A|---0---------------------------|
E|-------------------------------|

____________________________________________________________________________________
Guitar2:

Riff 6x
e|---------------------------------|
B|---5---5-6-5--5---5-6-5--5---5---|
G|---5-7-5-5-5--5-7-5-5-5--5-7-5---|
D|---5-5-5-5-5--5-5-5-5-5--5-5-5---|
A|---------------------------------|
E|---------------------------------|

e|------------13-12---|
B|---11/13------------|
G|---------12---------|
D|--------------------|
A|--------------------|
E|--------------------|

Palm mute:                   *leave the palm mute
e|---------------------------3---|
B|---------------------------3---|
G|---------------------------0---|
D|---5-------2---------------0---|
A|---3---3---0---2---3-------2---|
E|-------1-------0---1---3---3---|

Riff 3x
e|---------------------------------|
B|---5---5-6-5--5---5-6-5--5---5---|
G|---5-7-5-5-5--5-7-5-5-5--5-7-5---|
D|---5-5-5-5-5--5-5-5-5-5--5-5-5---|
A|---------------------------------|
E|---------------------------------|

e|---------------------------------------|
B|---5---5-6-5--5------------------------|
G|---5-7-5-5-5--5-7----------------------|
D|---5-5-5-5-5--5-5----------------------|
A|-------------------6---6---6---8---6---|
E|-------------------4---4---4---6---4---|

e|--------------------------------------------------|
B|--------------------------------------------------|
G|---9---12---10---9---12---14---9---12---16---17---|
D|--------------------------------------------------|
A|---7---10---8----7---10---12---7---10---14---15---|
E|--------------------------------------------------|

Riff 4x
e|---------------------------------|
B|---5---5-6-5--5---5-6-5--5---5---|
G|---5-7-5-5-5--5-7-5-5-5--5-7-5---|
D|---5-5-5-5-5--5-5-5-5-5--5-5-5---|
A|---------------------------------|
E|---------------------------------|

e|------------13-12---|
B|---11/13------------|
G|---------12---------|
D|--------------------|
A|--------------------|
E|--------------------|

e|-----------3-----------3---13---|
B|-------3-----------3-------13---|
G|---0-----------0----------------|
D|--------------------------------|
A|--------------------------------|
E|--------------------------------|

Riff 3x
e|---------------------------------|
B|---5---5-6-5--5---5-6-5--5---5---|
G|---5-7-5-5-5--5-7-5-5-5--5-7-5---|
D|---5-5-5-5-5--5-5-5-5-5--5-5-5---|
A|---------------------------------|
E|---------------------------------|

e|---------------------------------------|
B|---5---5-6-5--5------------------------|
G|---5-7-5-5-5--5-7----------------------|
D|---5-5-5-5-5--5-5----------------------|
A|-------------------6---6---6---8---6---|
E|-------------------4---4---4---6---4---|

e|--------------------------------------------------|
B|--------------------------------------------------|
G|---9---12---10---9---12---14---9---12---16---17---|
D|--------------------------------------------------|
A|---7---10---8----7---10---12---7---10---14---15---|
E|--------------------------------------------------|

Riff 8x
e|---------------------------------|
B|---5---5-6-5--5---5-6-5--5---5---|
G|---5-7-5-5-5--5-7-5-5-5--5-7-5---|
D|---5-5-5-5-5--5-5-5-5-5--5-5-5---|
A|---------------------------------|
E|---------------------------------|

2x \/
e|--------------------------|
B|---5---5-6-5--5---5-6-5---|
G|---5-7-5-5-5--5-7-5-5-5---|
D|---5-5-5-5-5--5-5-5-5-5---|
A|--------------------------|
E|--------------------------|

e|-------------------15---|
B|---6/8----11/13---------|
G|----------------12------|
D|-------8----------------|
A|------------------------|
E|------------------------|

e|--------------------------------------------------|
B|--------------------------------------------------|
G|---9---12---10---9---12---14---9---12---16---17---|
D|--------------------------------------------------|
A|---7---10---8----7---10---12---7---10---14---15---|
E|--------------------------------------------------|

e|-------------------------------------------|
B|-------------------------------------------|
G|---9---5---7---9---5---7---9---4---7---5---|
D|---------------------------------------3---|
A|---7---3---5---7---3---5---7---2---5---3---|
E|-------------------------------------------|

e|-------8-------------8---------8-----------8--------|
B|-----8---8---------8------8--8------8h10---8--------|
G|---9--------9-9h10--------9---------9h10-------10---|
D|----------------------------------------------------|
A|----------------------------------------------------|
E|----------------------------------------------------|

            
            
Suggest correction
Creating personal tab
Creating personal tab
You can edit any tab online and save it as your Personal.

You can edit, replace or remove any tab part or add personal notes – all changes will be seen only by you.

Personal tabs can be accessed anytime from any device, even offline.
Learn more »
Give kudos to tab author, rate the tab!
1 2 3 4 5
comments
print report bad tab
guest
You may want to rate the tab now too:
select rating
Wanna post a correction for this tab? Suggest correction