Oops, an error
Loading. Please wait.

Meantime tab

version 1
version 1

Whole song

Interactive

3,781 views 1 this week
no commentswrite comment
1 2 3 4 5
1 last vote to show rating
add to favorites
×
Save as Personal and add changes to this tab that will be seen only by you. Learn more ›
×
You can save this tab as Personal to edit and correct it or add notes. All changes will be seen only by you. Learn more »
launch autoscroll
font size
0
reset
how to read this tab
guitar tuner
edit
Autoscroll
slow
fast
+/-
esc
set tempo
stop
Author
-----------------------------------------------------------------------
                          .meantime tab by felle
-----------------------------------------------------------------------

Artist:BEATSTEAKS
Song:Meantime
Album:.Limbo Messiah
Tuning:standard

I'm already trying to tab out the bridge...updated will be soon!!!

Intro:

Gtr1:


               pm-----------------------|

E------------------------------------------------|
B------------------------------------------------|
G-7-7-7-7-7-7-7--2-2-2-2-2-2-2-2-2-2-2-2---------|
D-7-7-7-7-7-7-7--2-2-2-2-2-2-2-2-2-2-2-2---------|
A-5-5-5-5-5-5-5--0-0-0-0-0-0-0-0-0-0-0-0---------|
E------------------------------------------------|

Gtr2:

                      pm-----------------------------------|

E-----------------------------------------------------------------|
B-----------------------------------------------------------------|
G-10-10-10-10-10-10-10--10-10-10-10-10-10-10-10-10-10-10-10-------|
D-10-10-10-10-10-10-10--9--9--9--9--9--9--9--9--9--9--9--9--------|
A-12-12-12-12-12-12-12--10-10-10-10-10-10-10-10-10-10-10-10-------|
E-----------------------------------------------------------------|

Verse1:

Gtr1:

E----------------------------------------------------------------|
B----------------------------------------------------------------|
G-5-5-5-5-5-5-5-5--7-7-7--2--2-2-2--7-7-7--2--2-2-2--------------|
D-5-5-5-5-5-5-5-5--7-7-7--2--2-2-2--7-7-7--2--2-2-2--3-3-3-3-----| x2
A-3-3-3-3-3-3-3-3--5-5-5--0--0-0-0--5-5-5--0--0-0-0--3-3-3-3-----|
E----------------------------------------------------1-1-1-1-----|

Gtr2:

E------------------------------------------------------------------------|
B-8--8--8--8--8--8--8---10-10-10--10--10-10-10--10-10-10--10--10-10-10---|
G-9--9--9--9--9--9--9---10-10-10--9---9--9--9---10-10-10--9---9--9--9----|
D-10-10-10-10-10-10-10--12-12-12--10--10-10-10--12-12-12--10--10-10-10---|
A------------------------------------------------------------------------|
E------------------------------------------------------------------------|

                                      p1---------------------| x2

E----------------------------------------------------------------|
B----------------------------------------------------------------|
G-10-10-10-10--8--8--8--8--8--8--8--8---10-10-10--10--10-10-10---|
D-14-14-12-12--9--9--9--9--9--9--9--9---10-10-10--9---9--9--9----|
A-10-10-10-10--10-10-10-10-10-10-10-10--12-12-12--10--10-10-10---|
E----------------------------------------------------------------|

Verse2:

Gtr2:

                p1-----------------------------| x4

E--/5--5--5s0-0---5-5----5--5-5----5--5--5--5s0----|
B--/6--6--6s1-1---6-6--5-6--6-6--5-6--6--6--6s1----|
G--/7--5--5s0-0---7-7--5-7--7-7--5-7--7--5--5s0----|
D----------------------5---------5-----------------|
A---------------------(0)-------(0)----------------|
E--------------------------------------------------|

Bridge:

E-8----8---8---8--8-s------
B-10---9---8---7-s6-s------
G--------------------------
D--------------------------
A--------------------------
E--------------------------

Chorus is the same as Verse1,

Solo(Gtr1 plays the "Verse1"Riff)

E----------------------------------------------------------|
B-------------------8-------------8------------------------|
G-9-9-9-9-9-9-9-9-10-10-9-9-9-9-10-10-9-9-9-9-10-9---------|
D-------------------------------------------------12-10----|
A----------------------------------------------------------|
E----------------------------------------------------------|

E-----------------------------------------------------------------------------|
B------------------------------13-----------------13--------------------------|
G-10s12-12-12-12-12-12-12-12-14--14-12-12-12-12-14--14-12-12-12-12-14-12-10-9-|
D-----------------------------------------------------------------------------|
A-----------------------------------------------------------------------------|
E-----------------------------------------------------------------------------|

ending on:

E-----
B-----
G-10--

Order:

Intro   x1
Verse1  x1
verse2  x1
Verse1  x1
verse2  x1
Verse   x1
Bridge  x2
verse   x3
solo    x1

Cheers,

FELLE

            
            
Suggest correction
Creating personal tab
Creating personal tab
You can edit any tab online and save it as your Personal.

You can edit, replace or remove any tab part or add personal notes – all changes will be seen only by you.

Personal tabs can be accessed anytime from any device, even offline.
Learn more »
Give kudos to tab author, rate the tab!
1 2 3 4 5
comments
print report bad tab
guest
You may want to rate the tab now too:
select rating
Wanna post a correction for this tab? Suggest correction