Oops, an error
Loading. Please wait.

Brainstorm bass

version 1
version 1

Whole song

Interactive

15,454 views 9 this week
no commentswrite comment
1 2 3 4 5
1 last vote to show rating
add to favorites
×
Save as Personal and add changes to this tab that will be seen only by you. Learn more ›
×
You can save this tab as Personal to edit and correct it or add notes. All changes will be seen only by you. Learn more »
launch autoscroll
font size
0
reset
guitar tuner
edit
Autoscroll
slow
fast
+/-
esc
set tempo
stop
ok guys this is my first tab so bear with me
i tabbed it from watching DavidSinRocks on youtube playing this so big thanks to
its not perfect for example the repeated notes like 5555555555 and such are either 
or short than whats written in the song sorry about that i was lazy lol
just listen to the song :P

oh and.. it might be a little hard at some parts when you need to go really fast :P i 
even play it properly lol

and if theres anything that needs to be fixed please let me know!

-----------------------------------------------------------------
Brainstorm - BECK:Mongolian Chop Squad
-----------------------------------------------------------------

Tabbed By : MrSpyke

Tuning:Eb standard

Eb/D#
Ab/G#
Db/C#
Gb/F#

i am aware that on the sides it says E.A.D.G. but im lazy to change it sorry >.<

yea so.. again listen to the song for timing :P


G|---------------------------------------------------------------|
D|---------------------------------------------------------------|
A|-5--------------3-4-5---------------9/15--15-------------------|
E|------3----1------------------0/10-----------------------------|

G|-----------------------------|---------------------------------|
D|----------5553-------------3-|-----------5553------------3-----|
A|-5-55-55--------5-55-55--35-5|--5-55-55--------5-55-55-35-5----|
E|-----------------------------|---------------------------------|

G|-----------------------------|---------------------------------|
D|----------5553-------------3-|---------------------------------|
A|-5-55-55--------5-55-55--35-5|--55-5-5--5/15-15151515----------|
E|-----------------------------|---------------------------------|

G|-----------------------------------------------------------------------------------|
D|-----------------------------------------------------------------------------------|
A|-5-5------------3h5-5-55555555--3h5-55555555------------------22222222-------------|
E|-----3--33-333-------------------------------22222222-3333333----------44444444----|

G|-----------------------------------------------------------------------------------------|
D|-----------------------------------------------------------------------------------------|
A|-3h5-55555555-----------3h5-5555555--2222222-----------------------55555-5-5555-5/151515-|
E|--------------33333333-----------------------333333--555555--3--5------------------------|

G|-----------------------------------------------------------------------------------|
D|-----------------------------------------------------------------------------------|
A|-5-5------------3h5-5-55555555--3h5-55555555------------------22222222-------------|
E|-----3--33-333-------------------------------22222222-3333333----------44444444----|

G|----------------------------------------------------------------------------------------|
D|----------------------------------------------------------------------------------------|
A|-3h5-555555555-----------3h5-555555555555--2222222-------------------------------55555--|
E|---------------333333333---------------------------3333333-4444444--33333--55555--------|

G|---------------------------------------------------------------|
D|---------------------------------------------------------------|
A|----------5-5-5-22----------------------tap-tap-tap------------|
E|-3-3-3-55-----------33333333-55555555--------------------------|

G|---------------------------------------------------------------|
D|---------------------------------------------------------------|
A|--5555555----------2222222-------------------------------------|
E|----------2222222-----------55555555--5/17-17171717------------|

G|---------------------------------------------------------------|
D|---------------------------------------------------------------|
A|-5555555----------2222-----------------------------------------|
E|---------22222222-----55555---3333-2222--5555------------------|

G|--------------------------------------------------577-75-------|
D|-------------------------------------------------5------5------|
A|---------------------------------------------5-----------------|
E|-3-3---2-2---0-0---2-2---3333333-2222222--5--------------------|

G|------5--------7--------5--------------------5--------7--------7------4640--------|
D|----------------------------------3---------------------------------35------------|
A|-3-3---33/5-5---55\3-3----3--5-5-----5---3-3--33/5-5----55\3-3----35--------------|
E|----------------------------------------------------------------------------------|

G|------5--------7--------5--------7-5------5------7--1012911---------------------|
D|-----------------------------------------------------------1012-----------------|
A|-3-3---33/5-5---55\3-3-----33/5-------533---33/5-----------------3-4------------|
E|--------------------------------------------------------------------------------|

G|-----------------------------|---------------------------------|
D|----------5553-------------3-|-----------5553------------3-----|
A|-5-55-55--------5-55-55--35-5|--5-55-55--------5-55-55-35-5----|
E|-----------------------------|---------------------------------|

G|-----------------------------|---------------------------------|
D|----------5553-------------3-|-----------5553------------------|
A|-5-55-55--------5-55-55--35-5|--5-55-55--------5-55-55-3--4----|
E|-----------------------------|---------------------------------|

G|---------------------------------------------------------------|
D|---------------------------------------------------------------|
A|--4-----4--------4-----4--2-----2------------------------------|
E|-----4-----4--2-----2--------2-----2---4444444-----------------|

G|---------------------------------------------------------------|
D|---------------------------------------------------------------|
A|--4-----4--------4-----4---------------------------------------|
E|-----4-----4--2-----2-----33333333--55555555--5/17-1717171717--|

G|------------------------------------7777-----------------------|
D|---------------------------------------------------------------|
A|-555555-----------2222222--------------------------------------|
E|---------2222222------------5555555----------------------------|

G|---------------------------------------------------------------|
D|---------------------------------------------------------------|
A|-555555-----------2222-----------------------------------------|
E|---------2222222------5555---3--2--0--2--0h3/5-----------------|

G|---------------------------------------------------------------|
D|---------------------------------------------------------------|
A|-555555-----------2222222--------------------------------------|
E|---------2222222------------5555/17-171717---------------------|

G|----------------------------------------------------------------------------------------|
D|----------------------------------------------------------------------------------------|
A|-555555---------2222-----------------------------------------------------5/171717-17/5--|
E|--------2222222-----5555--3--2--55555--3-3-2-2-0-0-2-2-333333-2222222-5-5---------------|

G|-----------------------------|---------------------------------|
D|----------5553-------------3-|-----------5553------------3-----|
A|-5-55-55--------5-55-55--35-5|--5-55-55--------5-55-55-35-5----|
E|-----------------------------|---------------------------------|

G|-----------------------------|---------------------------------|
D|----------5553-------------3-|-----------5553------------------|
A|-5-55-55--------5-55-55--35-5|--5-55-55--------5-55-55-3-4-5---|
E|-----------------------------|---------------------------------|

            
            
Suggest correction
Creating personal tab
Creating personal tab
You can edit any tab online and save it as your Personal.

You can edit, replace or remove any tab part or add personal notes – all changes will be seen only by you.

Personal tabs can be accessed anytime from any device, even offline.
Learn more »
Give kudos to tab author, rate the tab!
1 2 3 4 5
comments
print report bad tab
guest
Wanna post a correction for this tab? Suggest correction