Oops, an error
Loading. Please wait.

Follow Me bass

10,369 views 1 this week
no commentswrite comment
1 2 3 4 5
2 more votes to show rating
add to favorites
×
Save as Personal and add changes to this tab that will be seen only by you. Learn more ›
×
You can save this tab as Personal to edit and correct it or add notes. All changes will be seen only by you. Learn more »
launch autoscroll
font size
0
reset
guitar tuner
edit
Autoscroll
slow
fast
+/-
esc
set tempo
stop
Author
Bass tab for "Follow Me" made by w4tch (dothack@fastmail.fm).


Song: Follow Me
By: Rocket Boys (From The Beck OST 1 - Beck)
For: Bass Guitar
Tabbed by: w4cth (dothack@fastmail.fm)
 
Tuning: EADG
Notes: Just follow the note, I think it's pretty accurate (looks a
little bit messed up here, I'm bad for spacing out for the rhythm).


 Intro:
 ...how much...
|-----|-----------------------------|
|-----|-----5-4-5-4-------5-4-5-4---|
|-5---|---5---------5---5---------5-|
|---5-|-3-------------3-------------|

 I was starring...
|---------------------------------|---------------------------------|
|-----------0---0-------0---------|-----7-----------------0-0-4-7-0-|
|---5---5-----------3-----3---3-2-|---7-----------2-----7-----------|
|-3---3---2---2---1---1-----3-----|-5-----3-2-0-3---0-5-------------|

 I was standing...
|---------------------------------|------------------------------------------|
|-----------0---0-------0---------|---------------------0-4-7-4-0------5-----|
|---5---5-----------3-----3---3-2-|---7-----------2---0------------3-6---5-5-|
|-3---3---2---2---1---1-----3-----|-5-----3-2-0-3---0------------------------|
                                                        
 Reff:
|-----------------------------|-------------------------|
|-----5-4-5-4-----------------|-------------------------|
|---5---------5-7---7-6-7-6---|-2---2-2-3-2---3-3-2-2---|
|-3---------------7---------7-|---2---------2---------2-|


|---------------4---------------|---------------------------|
|---9-----9---------------2-----|-----5-4-5-4-------5-4-5---|
|-7---7-6---6-5---5-4-4-3---5-5-|---5---------5---5-------5-|
|-------------------------------|-3-------------3-----------|


|---------------------------------|-----------------------|-------|
|-----------0---0-------0---------|-----7-----------------|-------|
|---5---5-----------3-----3---3-2-|---7-----------2-----7-|-5(8x)-|
|-3---3---2---2---1---1-----3-----|-5-----3-2-0-3---0-5---|-------|

 Guitar Solo:
|-------------------------------------|
|-------------------------------------|
|-------------------------------------|
|-3(8x)-2(8x)-1(8x)-8(4x)-7(4x)-5(8x)-|


|---------------------------------------------|
|-----------------------0-4-7-4-0-------5-----|
|-------------2---0(4x)-------------3-6---5-5-|
|-3-3-2-2-0-3---0-----------------------------|
                        
 Reff:
|-----------------------------|-------------------------|
|-----5-4-5-4-----------------|-------------------------|
|---5---------5-7---7-6-7-6---|-2---2-2-3-2---3-3-2-2---|
|-3---------------7---------7-|---2---------2---------2-|


|---------------4---------------|
|---9-----9---------------2-----|
|-7---7-6---6-5---5-4-4-3---5-5-|
|-------------------------------|


|-----------------------------|-------------------------|
|-----5-4-5-4-----------------|-------------------------|
|---5---------5-7---7-6-7-6---|-2---2-2-3-2---3-3-2-2---|
|-3---------------7---------7-|---2---------2---------2-|


|---------------4---------------|-------------------------4-----------|
|---9-----9---------------2---4-|-5-4-2-5---2---4-5-4-2-5---5---2-----|
|-7---7-6---6-5---5-4-4-3---5---|---------3---5---------------3---5-5-|
|-------------------------------|-------------------------------------|


|---------|
|-----5-7-|
|-3-6-----|
|---------| (Fade Away)

Any questions, comments, or corrections are welcome.
w4cth (dothack@fastmail.fm)

            
            
Suggest correction
Creating personal tab
Creating personal tab
You can edit any tab online and save it as your Personal.

You can edit, replace or remove any tab part or add personal notes – all changes will be seen only by you.

Personal tabs can be accessed anytime from any device, even offline.
Learn more »
Give kudos to tab author, rate the tab!
1 2 3 4 5
comments
print report bad tab
guest
You may want to rate the tab now too:
select rating
Wanna post a correction for this tab? Suggest correction