Oops, an error
Loading. Please wait.

Into Oblivion bass

version 1
version 1

Whole song

Interactive

1,415 views 6 this week
2 commentsread comments
1 2 3 4 5
2 more votes to show rating
add to favorites
×
Save as Personal and add changes to this tab that will be seen only by you. Learn more ›
×
You can save this tab as Personal to edit and correct it or add notes. All changes will be seen only by you. Learn more »
launch autoscroll
font size
0
reset
guitar tuner
edit
Autoscroll
slow
fast
+/-
esc
set tempo
stop
i firgured theres no tab for this and i wanted to do it so heres wat i though was it its 
100% correct sounds close.leave comments

intro :)


|------------------------------------------------------------------------|
|--------------------99--1010--1212--1010--99----------------------------|
|---00--77--88--1010---------------------------1010--88--77--------------|
|-----------------------------------------------------------1010--88--77-|

|-----------------------------------------------------------------------|
|-----------------77--1010--88--77--88--77------------------------------|
|--55--88--66--77--------------------------88--66--55-------------------|
|-----------------------------------------------------88--66--55--------|

Riff 1a x2 |
           V
|-----------------------------------------------------------------------|
|-----------------------------------------------------------------------|
|--0-5-5----------------4-4-4-----0-5-5---------------------------------|
|---------0-7-7--0-8-8--------------------0-7-7--0-8-8------------------|

sweet bass part

|-----------------------------------------------------------------------|
|-----------------------------------------------------------------------|
|------222--444----------2--4-------------------------------------------|
|--0~-----------333--222------------------------------------------------|

Riff 2a x4

|-----------------------------------------------------------------------|
|-----------------------------------------------------------------------|
|---------------------------3--------------------------5----------------|
|--6-6--0-0--1-1--5-5--3-3-----6-6--0-0--1-1--5-5--3-3------------------|

Riff 2b x2

|-----------------------------------------------------------------------|
|-----------------------------------------------------------------------|
|-------------------------33-------------------------55-----------------|
|--666--000--111--555--33-----666--000--111--555--33--------------------|

Riff 2a x4

|-----------------------------------------------------------------------|
|-----------------------------------------------------------------------|
|---------------------------3--------------------------5----------------|
|--6-6--0-0--1-1--5-5--3-3-----6-6--0-0--1-1--5-5--3-3------------------|

Bridge 1 x4

|-----------------------------------------------------------------------|
|-----------------------------------------------------------------------|
|-----------------------------------------------------------------------|
|--3/2--3/5--5/6--------------------------------------------------------|

|-----------------------------------------------------------------------|
|-----------------------------------------------------------------------|
|-----------------------------------------------------------------------|
|--8-7-6---0-0--8-7-6--0-0--8-7-6--0-0--8-7-6--0-0--8-7-6---------------|

|-----------------------------------------------------------------------|
|-----------------------------------------------------------------------|
|--------------------------------------8--------------------------------|
|--000--8-7-6--000-000--000--8-7-6---0----------------------------------|

|-----------------------------------------------------------------------|
|-----------------------------------------------------------------------|
|-----------------------------------------------------------------------|
|--000--8-7-6--000--000---000--8-7-6--000--000--------------------------|

acoustic part

|-----------------------------------------------------------------------|
|-----------------------------------------------------------------------|
|-----------------------------------------------------------------------|
|--12~--10-------------8~--7--------------------------------------------|

Bridge at 2:04 then | x4
                    V
|-----------------------------------------------------------------------|
|-----------------------------------------------------------------------|
|-----------------------3x10--1x10--4-4/5--5/7--7/5--5/4----------------|
|--0--3--5--3--2h3-2p0-------------------------------------12/----------|

intro riff x4

|-----------------------------------------------------------------------|
|--------------------9--10--12--10--9-----------------------------------|
|---0--7--8--10---------------------------10--8--7----------------------|
|-----------------------------------------------------------10--8--7----|

|-----------------------------------------------------------------------|
|-----------------7--10--8--7--8--7-------------------------------------|
|--5--8--6--7--------------------------8--6--5--------------------------|
|-----------------------------------------------------8--6--5-----------|


Riff 2a x9

|-----------------------------------------------------------------------|
|-----------------------------------------------------------------------|
|---------------------------3--------------------------5----------------|
|--6-6--0-0--1-1--5-5--3-3-----6-6--0-0--1-1--5-5--3-3------------------|

Riff 2b x4

|-----------------------------------------------------------------------|
|-----------------------------------------------------------------------|
|-------------------------33-------------------------55-----------------|
|--666--000--111--555--33-----666--000--111--555--33--------------------|

Riff 2a x4

|-----------------------------------------------------------------------|
|-----------------------------------------------------------------------|
|---------------------------3--------------------------5----------------|
|--6-6--0-0--1-1--5-5--3-3-----6-6--0-0--1-1--5-5--3-3------------------|

Riff 2b x4

|-----------------------------------------------------------------------|
|-----------------------------------------------------------------------|
|-------------------------33-------------------------55-----------------|
|--666--000--111--555--33-----666--000--111--555--33--------------------|

|-----------------------------------------------------------------------|
|-----------------------------------------------------------------------|
|---------------------------8-8--11-11--7-7--10-10----------------------|
|--0-0--0-0--0-0--0-0--0-0----------------------------------------------|

|-----------------------------------------------------------------------|
|-----------------------------------------------------------------------|
|---------------------------13/-----------------------------------------|
|--0-0--0-0--0-0--0-0--0-0----------------------------------------------|

|---------------------------------------------------------------------------|
|---------------------------------------------------------------------------|
|-------7-8-10-------7-8-10------7-8-------7-8-10-------8-8-11-11-7-7-10-10-|
|--0-0----------0-0----------0-0------0-0----------0-0----------------------|

i couldnt figure out this part next part the tapping throw me off

Riff 1a x4 |
           V
|-----------------------------------------------------------------------|
|-----------------------------------------------------------------------|
|-----0-5-5-------------------------------------------------------------|
|------------0-7-7--0-8-8-----------------------------------------------|

ending

|-----------------------------------------------------------------------|
|-----------------------------------------------------------------------|
|-----0-5-5-------------------------------------------------------------|
|------------0-7-7--0-8-8---8/------------------------------------------|

         thats all i have for ya please leave comments

            
            
Suggest correction
Creating personal tab
Creating personal tab
You can edit any tab online and save it as your Personal.

You can edit, replace or remove any tab part or add personal notes – all changes will be seen only by you.

Personal tabs can be accessed anytime from any device, even offline.
Learn more »
Give kudos to tab author, rate the tab!
1 2 3 4 5
comments
print report bad tab
2 comments total.
0 reply
carnifexplayer 10 Dec 02, 2008 09:50 AM

its ok looks much like guitar tab haha but i think some parts r wrong....but idkk

0 reply
guitartar 10 Dec 02, 2008 10:31 AM

needs work its deff not right but closee

guest
You may want to rate the tab now too:
select rating
Wanna post a correction for this tab? Suggest correction