Oops, an error
Loading. Please wait.

Living In Jungles tab

version 1
version 1

Whole song

3,256 views 1 this week
3 commentsread comments
1 2 3 4 5
1 last vote to show rating
add to favorites
×
Save as Personal and add changes to this tab that will be seen only by you. Learn more ›
×
You can save this tab as Personal to edit and correct it or add notes. All changes will be seen only by you. Learn more »
launch autoscroll
font size
0
reset
how to read this tab
guitar tuner
edit
Autoscroll
slow
fast
+/-
esc
set tempo
stop
Difficulty
This is the third song off of Sounding A Mosaic by Bedouin Soundclash.
Enjoy!
Any corrections feel free to fix.

Intro (Riff 1)

E -------------------------------------------------------------------|
B -------------------------------------------------------------------|
G -------------------------------------------------------------------|
D -------------------------------------------------------------------|
A -----------11--10------11--10-------------11--10------11--10-------|
E -----8--8----------8----------------8--8----------8----------------|

E -------------------------------------------------------------------|
B -------------------------------------------------------------------|
G -------------------------------------------------------------------|
D -------------------------------------------------------------------|
A -----------11--10-----11--10---------6--5---------11--10-----------|
E -----8--8----------8-----------3--3------------8-------------------|

This riff is pretty much repeated throughout the song.


Except:

      "Muderer, Blood up on your shoulder"
E -------------------------------------------------------------------|
B -------------------------------------------------------------------|
G -------------------------------------------------------------------|
D -------------------------------------------------------------------|
A ---------------------------------------6--5------------------------|
E ----3--------------------------------------------------------------|

and

      "Walk like a champion, talk like a champion"
E -------------------------------------------------------------------|
B -------------------------------------------------------------------|
G -------------------------------------------------------------------|
D -------------------------------------------------------------------|
A ---------------------------------------------6--5------------------|
E ----3----------------------3---------------------------------------|

and

   "Comes with the beat, come with heat, shaking head to the feet"
E -------------------------------------------------------------------|
B -------------------------------------------------------------------|
G -------------------------------------------------------------------|
D -------------------------------------------------------------------|
A ------------------------------------------------3----3------6--5---|
E ---------------3------------------3--------------------------------|

You just have to listen for those breaks and when to play which notes.

As for the last chords,
I've seen other tabs do something like this (giving credit to vega, www.ultimate-guitar.com):


C              C          C      C  C           C          C      C
Ride again you be a ghost some day, Rodigan you be a ghost some day,
C              C          C      C  G        G         C       C
Ride again you be a ghost some day, Whoa oh oh a ghost some day...

And that's about it!

As for the last lyrics, I've seen different versions, such as "rodigan, you be a ghost 
day", and "Rider can you be a ghost some day?", but you'll have to ask the band.

Have fun!

            
            
Suggest correction
Creating personal tab
Creating personal tab
You can edit any tab online and save it as your Personal.

You can edit, replace or remove any tab part or add personal notes – all changes will be seen only by you.

Personal tabs can be accessed anytime from any device, even offline.
Learn more »
Give kudos to tab author, rate the tab!
1 2 3 4 5
comments
print report bad tab
3 comments total.
0 reply
CurtisJay 136 Jun 22, 2006 09:38 AM

this is the same as vega's but in a different position on the fret board, nice of you to tab out the different riff parts though

0 reply
boomheadshot 10 Sep 10, 2006 07:33 AM

Hey, im the one who tabbed this out, before I had a username. Yeah, here are the chords in tab for the ending:


E--3------------3----------3-----3---3-------3---------3-------3----
B--3------------3----------3-----3---3-------3---------3-------3----
G--3------------3----------3-----3---3-------3---------3-------3----
D-------------------------------------------------------------------
A-------------------------------------------------------------------
E-------------------------------------------------------------------
C C C C C C C C
Ride again you be a ghost some day, Rodigan you be a ghost some day,


E--3------------3----------3-----3---1-------3---------3-------3----
B--3------------3----------3-----3---0-------3---------3-------3----
G--3------------3----------3-----3---0-------3---------3-------3----
D------------------------------------0------------------------------
A------------------------------------2------------------------------
E------------------------------------3------------------------------

C C C G G C C
Ride again you be a ghost some day, Whoa oh oh a ghost some day...


Hope that helps!

0 reply
CurtisJay 136 Jul 16, 2007 08:53 PM

hmmm, i disagree slightly with your chords, those are Gm chords, they should be C (1st string- 3 fret, 2nd string- 5 fret, 3rd string- 5th fret)

guest
Wanna post a correction for this tab? Suggest correction