Oops, an error
Loading. Please wait.

Money Worries bass

983 views 1 this week
3 commentsread comments
1 2 3 4 5
2 more votes to show rating
add to favorites
×
Save as Personal and add changes to this tab that will be seen only by you. Learn more ›
×
You can save this tab as Personal to edit and correct it or add notes. All changes will be seen only by you. Learn more »
launch autoscroll
font size
0
reset
guitar tuner
edit
Autoscroll
slow
fast
+/-
esc
set tempo
stop
Author
Difficulty
-------------------------------------------------------------------------------
		      Money Worries - Bedouin Soundclash
-------------------------------------------------------------------------------

Tabbed By : Stu Symes
e-mail: johnny-butt@hotmail.com

Tuning: Standard

***************
*Song Sections*
***************

*Chorus
G|-----------------------------------------------------|
D|------------7-7---7---------------5-5---5------------|
A|-5-5---5--------7------7-7---7--------5--------------|
E|-----5---------------------7-------------------------|

*Verse
G|-----------------------------------------------------|
D|-o-------------------------------------------------o-| Repeat
A|-o-------------------------------------------------o-|   3x
E|----3--5-5-5-5-5------5--3-3-3-3-3-------------------|

G|-----------------------------------------------------|
D|-----------------------------------------------------|
A|-----------------------------------------------------|
E|--3--5-5-5-5-5------5--------5--5--5--5--------------|

*Bridge
G|-----------------------------------------------------|
D|------------------------------5-5----5-5----5-5---5--|
A|--5-5----5-5----5-5---5-------------------------5----|
E|--------------------5--------------------------------|

G|-----------------------------------------------------|
D|-----------------------------------------------------|
A|--5-5----5-5----5-5---5-------5-5----5-5----5-5---5--|
E|--------------------5-------5-------------------5----|

*Outro
G|-----------------------------------------------------|
D|------------7-7---7----------------------------------|
A|-5-5---5--------7------7-7---7-----------------------|
E|-----5---------------------7-------------------------|


**********
*Sequence*
**********

Intro (just wait it out)
Chorus x6
Verse  x1
Chorus x4
Verse  x1
Chorus x4
Bridge x2
Verse  x1
Chorus x12
Outro x1

            
            
Suggest correction
Creating personal tab
Creating personal tab
You can edit any tab online and save it as your Personal.

You can edit, replace or remove any tab part or add personal notes – all changes will be seen only by you.

Personal tabs can be accessed anytime from any device, even offline.
Learn more »
Give kudos to tab author, rate the tab!
1 2 3 4 5
comments
print report bad tab
3 comments total.
0 reply
chrisjenks 2,712 Aug 12, 2008 07:42 AM

sounds good!

i think he only plays this chorus on the first repeat:

G|-------------------------|
D|-------77--7-------55--5-|
A|-55--5----7--77--7----5--|
E|---5-----------7---------|

after that he changes one note:

G|-------------------------|
D|-------77--7---9---55--5-|
A|-55--5----7--77--7----5--|
E|---5---------------------|

0 reply
johnny butt 575 Aug 12, 2008 10:32 PM

i listened to it REALLY closely and i'm still convinced it's the way i tabbed it, but either way, that note's still a B. i guess it wouldn't really change all that much

0 reply
chrisjenks 2,712 Aug 13, 2008 07:42 AM

fair enough, i realise it's only an octave higher but that's what i'm hearing. it's pretty irrelevant though...good tab...5 stars.

guest
You may want to rate the tab now too:
select rating
Wanna post a correction for this tab? Suggest correction