Oops, an error
Loading. Please wait.

Walls Fall Down bass

version 1
version 1

Whole song

Interactive

4,651 views 1 this week
4 commentsread comments
1 2 3 4 5
1 last vote to show rating
add to favorites
×
Save as Personal and add changes to this tab that will be seen only by you. Learn more ›
×
You can save this tab as Personal to edit and correct it or add notes. All changes will be seen only by you. Learn more »
launch autoscroll
font size
0
reset
guitar tuner
edit
Autoscroll
slow
fast
+/-
esc
set tempo
stop
Author
Difficulty
Walls Fall Down – Bedouin Soundclash Bass Tab

	Verse
G|----------------------------------------------4--4-4-4-4-----------------------------------------|
D|-----1-1-1-1---1--2---4-4-4-4--6-4-6----------------6-4-6-4---4-4-4-4---1---1--------------------|
A|--2------------2-----------------------------------------------------------------------2---------|    X4
E|----------------------------------------------------------------------------------------------4--|


	After 4th Bar of verse
G|-----------------|
D|--4--4-----------|
A|-----------------|
E|-----------------|


	Chorus (No Bass in first part)
G|------------------------------------------------------------------------------|
D|--6-6-6----4-4-4----2-2-2-------------2-2-2----4-4-4---------------1---1------|
A|----------------------------------2-2-2-------------------------2-2-2--2---2--|
E|------------------------------------------------------------------------------|


	Verse
G|----------------------------------------------4--4-4-4-4-----------------------------------------|
D|-----1-1-1-1---1--2---4-4-4-4--6-4-6----------------6-4-6-4---4-4-4-4---1---1--------------------|
A|--2------------2-----------------------------------------------------------------------2---------|    X2
E|----------------------------------------------------------------------------------------------4--|


	After 2nd bar of verse
G|-----------------|
D|--4--4-----------|
A|-----------------|
E|-----------------|


	Chorus
G|------------------------------------------------------------------------------|
D|--6-6-6----4-4-4----2-2-2-------------2-2-2----4-4-4---------------1---1------|
A|----------------------------------2-2-2-------------------------2-2-2--2---2--|
E|------------------------------------------------------------------------------|


	Verse
G|----------------------------------------------4--4-4-4-4-----------------------------------------|
D|-----1-1-1-1---1--2---4-4-4-4--6-4-6----------------6-4-6-4---4-4-4-4---1---1--------------------|
A|--2------------2-----------------------------------------------------------------------2---------|    X2
E|----------------------------------------------------------------------------------------------4--|

	After 2nd bar of verse
G|-----------------|
D|--4--4-----------|
A|-----------------|
E|-----------------|


Last Chorus
G|----------------------------------------------------------|
D|---2-2-2-2-2-2-2-2---6-6-6-6--4-4-4-4---------------------|
A|----------------------------------------------------------|    X2
E|----------------------------------------------------------|


G|----------------------------------------------------|
D|---2-2-2-2-2-2-2-2------------4-4-4-4---------------|
A|-------------------------2-2-2-2--------------------|    X2
E|----------------------------------------------------|


G|------------------------------------------------------------------|
D|------------------------------------------------------------------|
A|-2-2-2-2-2-2-2-2-2-2-2-2-2-2-2-2-2-2-2-2-2-2-2-2-2-2-2-2-2-2-2-2--|
E|------------------------------------------------------------------|

            
            
Suggest correction
Creating personal tab
Creating personal tab
You can edit any tab online and save it as your Personal.

You can edit, replace or remove any tab part or add personal notes – all changes will be seen only by you.

Personal tabs can be accessed anytime from any device, even offline.
Learn more »
Give kudos to tab author, rate the tab!
1 2 3 4 5
comments
print report bad tab
4 comments total. Showing first comments.
0 reply
CurtisJay 136 Aug 16, 2006 10:37 AM

Walls Fall Down? I've never heard this song before. What Album is it off of?

0 reply
David Gauvreau 62 Jul 13, 2007 08:59 AM

new album, street gospel, its coming out soon ;) sounds good

0 reply
CarlAreBassists 136 Jul 13, 2007 01:41 PM

Yeah, they've played it live for a while though.

by the way this tab is wrong because i did it in word in the wrong font, so each line is out of sync with the others, but you should get the general jist of it.

guest
You may want to rate the tab now too:
select rating
Wanna post a correction for this tab? Suggest correction