Oops, an error
Loading. Please wait.

Mille Brindisi chords

208 views 9 this week
no commentswrite comment
1 2 3 4 5
1 last vote to show rating
add to favorites
×
Save as Personal and add changes to this tab that will be seen only by you. Learn more ›
×
You can save this tab as Personal to edit and correct it or add notes. All changes will be seen only by you. Learn more »
launch autoscroll
font size
0
reset
transpose
0
reset
simplify chords
display chords
guitar tuner
edit
Autoscroll
slow
fast
+/-
esc
set tempo
stop
Author
Difficulty
Strumming
There is no strumming pattern for this song yet. and get +5 IQ
[Intro]

e|-------5-5-5-5-----|-------------------|-------5-5-5-5-----|-------------------|
B|-----5---------7-5-|-------5-5-5-5-7-5-|-----5---------7-5-|-------5-5-5-------|
G|---6---------------|---6-7-------------|---6---------------|---6-7-------6-4---|
D|-7-----------------|-7-----------------|-7-----------------|-7---------------7-|
A|-------------------|-------------------|-------------------|-------------------|
E|-------------------|-------------------|-------------------|-------------------|


[Verse 1]

A5                             E5
La prima volta al pub non la ricordo manco più
E5                            A5
La panza sporge che non me lo vedo da quassù
A5                            E5
Se biascico non è per qualche strana condizione
E5                           A5      Ab5 A5
Ma solo per gli ettolitri di birra nelle vene

A5                      E5
Il sole l'ho veduto una volta in cartolina
E5                            A5
C'è un'aria irrespirabile nei pub di Laurentina
A5                              E5
Questa città è così ma in fondo cosa ce ne frega
E5                         A5         Ab5 A5
La birra e le cazzate sono quello che ci lega


[Chorus]

D5                                 A5
E se mi cerchi tu mi puoi trovare abbeve in qualche pub
B5                          E5 E5   E5  D5 C#5 B5
Cor boccale in mano, questa volta a che brindiamo?
A5                      E5
La la la la la la la la la la la la la
E5                      A5
La la la la la la la la la la la la la
A5                      D5
La la la la la la la la la la la la la
     A5         E5         A5 Ab5 A5
alla sorca alla sorca alla so-orca!


[Riff]

e|-------5-5-5-5-----|-------------------|-------5-5-5-5-----|-------------------|
B|-----5---------7-5-|-------5-5-5-5-7-5-|-----5---------7-5-|-------5-5-5-------|
G|---6---------------|---6-7-------------|---6---------------|---6-7-------6-4---|
D|-7-----------------|-7-----------------|-7-----------------|-7---------------7-|
A|-------------------|-------------------|-------------------|-------------------|
E|-------------------|-------------------|-------------------|-------------------|


[Verse 2]

A5                               E5
Dalle mie parti fa' il molesto è pura civiltà
E5                        A5
Ed è quasi impossibile trovar chi non lo fa
A5                           E5
In pratica è così, tale è la sorte der romano
E5                         A5       Ab5 A5
Appuntamento fisso co 'na chiara media in mano

A5                          E5
Saggezza popolare scorre al tavolo di un pub
E5                           A5
Storie metropolitane, ma che ve lo dico a fa?
A5                      E5
Un gomito si alza senza troppi complimenti,
E5                                A5      Ab5 A5
lo segue a rota un altro e poi a rota n'artri venti


[Chorus]

D5                                 A5
E se mi cerchi tu mi puoi trovare sbronzo in qualche bar
B5                          E5 E5   E5  D5 C#5 B5
Cor boccale in mano, questa volta a che brindiamo?
A5                      E5
La la la la la la la la la la la la la
E5                      A5
La la la la la la la la la la la la la
A5                      D5
La la la la la la la la la la la la la
     A5         E5         A5 Ab5 A5
alla sorca alla sorca alla so-orca!


[Riff]

e|-------5-5-5-5-----|-------------------|-------5-5-5-5-----|-------------------|
B|-----5---------7-5-|-------5-5-5-5-7-5-|-----5---------7-5-|-------5-5-5-------|
G|---6---------------|---6-7-------------|---6---------------|---6-7-------6-4---|
D|-7-----------------|-7-----------------|-7-----------------|-7---------------7-|
A|-------------------|-------------------|-------------------|-------------------|
E|-------------------|-------------------|-------------------|-------------------|


[Bridge] 
(Play only the bass line)
 
A5                          E5
Ed ora andate in pace ed onorate il vostro pub
E5                           A5
e ricordate amici, la morale è questa qua:
A5                         E5
Serate come questa sono il senso della vita
E5             E5           A5       Ab5  A5
Caciara, biliardino e mille brindisi alla fica!


[Chorus]

D5                                A5
E se mi cerchi tu mi puoi trovare steso in qualche bar
B5                          E5 E5   E5  D5 C#5 B5
Cor boccale in mano, questa volta a che brindiamo?
A5                      E5
La la la la la la la la la la la la la
E5                      A5
La la la la la la la la la la la la la
A5                      D5
La la la la la la la la la la la la la
     A5         E5         A5 Ab5 A5
alla sorca alla sorca alla so-orca!


[Outro]

e|-------5-5-5-5-----|-------------------|-------5-5-5-5-----|-------------------|
B|-----5---------7-5-|-------5-5-5-5-7-5-|-----5---------7-5-|-------5-5-5-------|
G|---6---------------|---6-7-------------|---6---------------|---6-7-------6-4---|
D|-7-----------------|-7-----------------|-7-----------------|-7---------------7-| x2
A|-------------------|-------------------|-------------------|-------------------|
E|-------------------|-------------------|-------------------|-------------------|

            
            
Suggest correction
Creating personal tab
Creating personal tab
You can edit any tab online and save it as your Personal.

You can edit, replace or remove any tab part or add personal notes – all changes will be seen only by you.

Personal tabs can be accessed anytime from any device, even offline.
Learn more »
Give kudos to tab author, rate the tab!
1 2 3 4 5
comments
print report bad tab
guest
You may want to rate the tab now too:
select rating
Wanna post a correction for this tab? Suggest correction