Oops, an error
Loading. Please wait.

The Things We Stood Against tab

1,270 views 1 this week
no commentswrite comment
1 2 3 4 5
1 last vote to show rating
add to favorites
×
Save as Personal and add changes to this tab that will be seen only by you. Learn more ›
×
You can save this tab as Personal to edit and correct it or add notes. All changes will be seen only by you. Learn more »
launch autoscroll
font size
0
reset
how to read this tab
guitar tuner
edit
Autoscroll
slow
fast
+/-
esc
set tempo
stop
Tabbed by: Joshua Garcia (joshuag523@aol.com)

This is my first tab ever (so go easy). Seeing as no one else has tabbed
this song, I decided to be the first. Please rate and let me know if you
have any corrections. Thank you.


* Updated on 07/03/2015 - Update to entire tab. Now completely accurate without any
 of those (rather large) newbie mistakes I made. I'm now confident this is 100% accurate
to the note. Sorry it took so long to get around to this moment. *


To view my guitar cover of this song, go here:
https://www.youtube.com/watch?v=Fa6ZxkeA22k


Tuning: Drop C# (C# G# C# F# A# D#)


Intro
Guitar 1:
D#||-------------------------------------------------------|
A#||-------------------------------------------------------|
F#||-------------------------------------------------------|
C#||--0~------------------------5--3-----3-----------------|
G#||--0~-------------3----------------5-----5--3--5--3-----|
C#||--0~----0--3--5-----5--3--0-------------------------5--|
      .

D#||------------------------------------------------|
A#||------------------------------------------------|
F#||------------------------------------------------|
C#||-----------------------5--3-----3----------'4b--| x3
G#||-----------3-----------------5-----5--3---------|
C#||--0--3--5-----5--3--0---------------------------|


Guitar 2:
D#||-----------------------------------------------------------0--0--|
A#||-----------------------------------------------------------4--4--|
F#||-----------------------------------------------------------------|
C#||------3---5-----6---5-----3---3h5-----3---5-----6---5------------| x2
G#||------3---5-----6---5-----3---3h5-----3---5-----6---5------------|
C#||--0-0-3-0-5-0-0-6-0-5-0-0-3-0-3h5-0-0-3-0-5-0-0-6-0-5-0-0--------|
      . .   .   . .   .   . .   .     . .   .   . .   .   . .


Guitar 1:
D#||-----------------------|------------------'x--------|
A#||-----------------------|-------------------'x-------|
F#||-----------------------|--------------------'x------|
C#||--0-0---0--00----------|--0-0---0--00--------'x-----|
G#||--0-0---0--00----------|--0-0---0--00---------'x----|
C#||--0-0---0--00-----'3~--|--0-0---0--00----------'x~--|


Guitar 2:
D#||-----------------------|-----------------------'x~--|
A#||-----------------------|----------------------'x----|
F#||-------------------0~--|---------------------'x-----|
C#||--0-0---0--00----------|--0-0---0--00-------'x------|
G#||--0-0---0--00----------|--0-0---0--00------'x-------|
C#||--0-0---0--00----------|--0-0---0--00-----'x--------|


Guitar 1/2:
D#||-----------------------|-----------------------|
A#||-----------------------|-----------------------|
F#||-----------------------|-----------------------|
C#||--0-0---0--00----------|--0-0---0--00------1/--|
G#||--0-0---0--00----------|--0-0---0--00------1/--|
C#||--0-0---0--00----------|--0-0---0--00------1/--|



Verse
Guitar 1/2:
D#||-------------------------------------------------------------------|
A#||-------------------------------------------------------------------|
F#||-------------------------------------------------------------------|
C#||--8-8-8-8-8-8-8-8-8-8-8-8-8-8-8---7-7-7-7-7-7-7-7-7-7-7-7-7-7-7-7--|
G#||--8-8-8-8-8-8-8-8-8-8-8-8-8-8-8---8-8-8-8-8-8-8-8-8-8-8-8-8-8-8-8--|
C#||--8-8-8-8-8-8-8-8-8-8-8-8-8-8-8-0-7-7-7-7-7-7-7-7-7-7-7-7-7-7-7-7--|


D#||--------------------------|----------------------|
A#||--------------------------|----------------------|
F#||--------------------------|----------------------|
C#||--5-----5-----5-5-5-------|--3-----3-----2-2-2/--|
G#||--5-----5-----5-5-5-------|--3-----3-----3-3-3/--|
C#||--5-55555-----5-5-5----0--|--3-33333-----2-2-2/--|
        ....               .       ....



Pre-Chorus
Guitar 1:
D#||-------------------------------------------------------------------------|
A#||-------------------------------------------------------------------------|
F#||------10----9-----------10---9-----------10---9-----10---9---10-----12~--|
C#||-------------------------------------------------------------------------|
G#||-------------------------------------------------------------------------|
C#||--0-0----0----0-0-0-0-0----0---0-0-0-0-0----0---0-0----0---0----0-0------|
      . .    .    . . . . .    .   . . . . .    .   . .    .   .    . .

D#||-------------------------------------------------------------------------|
A#||-------------------------------------------------------------------------|
F#||------10----9-----------10---9-----------10---9-----10---9---10------0~--|
C#||-------------------------------------------------------------------------|
G#||-------------------------------------------------------------------------|
C#||--8-8----8----8-8-8-8-8----8---8-8-8-8-8----8---8-8----8---8----8-8------|
      . .    .    . . . . .    .   . . . . .    .   . .    .   .    . .


Guitar 2:
D#||-----------------------------------------------------------------------|
A#||-----------------------------------------------------------------------|
F#||-----------------------------------------------------------------------|
C#||--000000000000000000000000000000-10-888888888888888888888888888888-10--|
G#||--000000000000000000000000000000-10-888888888888888888888888888888-10--|
C#||--000000000000000000000000000000-10-888888888888888888888888888888-10--|
      ..............................    ..............................


Guitar 1:
D#||-----------------------------------------------------------------------|
A#||-----------------------------------------------------------------------|
F#||--10-0-9-0-10-0-9-0-10-0-9-0-10-0-9-0-10-0-9-0-10-0-9-0-10-0-9-0--*10--|
C#||-----------------------------------------------------------------------|
G#||-----------------------------------------------------------------------|
C#||-----------------------------------------------------------------------|


Guitar 2:
D#||----------------|
A#||----------------|
F#||----------------|
C#||--8~--------7~--|
G#||--8~--------7~--|
C#||--8~--------7~--|



Chorus
Guitar 1:
D#||---------------------------------------------------|-------------------------------------------------|
A#||---------------------------------------------------|-------------------------------------------------|
F#||---------------------------------------------------|-------------------------------------------------|
C#||--8--8--8888--88--8880-7--7--777-12--121210--1010--|--7--7--7777--77--7777------3-3-----2-2----------| x2
G#||--8--8--8888--88--8880-8--8--888-12--121210--1010--|--8--8--8888--88--8888------3-3-----3-3----------|
C#||--8--8--8888--88--8880-7--7--777-12--121210--1010--|--7--7--7777--77--7777--0-0-3-3-0-0-2-2-0-0-3p0--|
                                                                                . .     . .     . .

Guitar 2 (listen for when to come in):
D#||----------------------------------------------------------------|
A#||------6---5-----6---5-----6---5---5--5--6-5-5-10--10-10-8--8-8--|
F#||--7-7---7---7-7---7---7-7---7---7-------------------------------|
C#||----------------------------------------------------------------|
G#||----------------------------------------------------------------|
C#||----------------------------------------------------------------|


D#||------------------------------------------------|
A#||--6----8----6---5----5----6----6/8----6----5-6--|
F#||------------------------------------------------|
C#||------------------------------------------------|
G#||------------------------------------------------|
C#||------------------------------------------------|



Pre-Verse
Guitar 1:
D#||-------------------------|
A#||-------------------------|
F#||-------------------------|
C#||--0-0-----0--00---8--0~--|
G#||--0-0-----0--00---7--0~--|
C#||--0-0-----0--00------0~--|
        .     .  ..      .

        

Verse:
Guitar 1/2:
D#||---------------------------------------------|
A#||---------------------------------------------|
F#||---------------------------------------------|
C#||--00-000-0--88-888-8--77-777-777-7-----------|
G#||--00-000-0--88-888-8--88-888-888-8-----------|
C#||--00-000-0--88-888-8--77-777-777-7-'3'3'3'3--|


D#||--------------------------------------------|
A#||--------------------------------------------|
F#||--------------------------------------------|
C#||--00-000-0--88-888-8--77-777-777-777-7--0~--|
G#||--00-000-0--88-888-8--88-888-888-888-8--0~--|
C#||--00-000-0--88-888-8--77-777-777-777-7--0~--|



Chorus
Guitar 1:
D#||---------------------------------------------------|-------------------------------------------------|
A#||---------------------------------------------------|-------------------------------------------------|
F#||---------------------------------------------------|-------------------------------------------------|
C#||--8--8--8888--88--8880-7--7--777-12--121210--1010--|--7--7--7777--77--7777------3-3-----2-2----------| x2
G#||--8--8--8888--88--8880-8--8--888-12--121210--1010--|--8--8--8888--88--8888------3-3-----3-3----------|
C#||--8--8--8888--88--8880-7--7--777-12--121210--1010--|--7--7--7777--77--7777--0-0-3-3-0-0-2-2-0-0-3p0--|
                                                                                . .     . .     . .

D#||---------------------------|
A#||---------------------------|
F#||---------------------------|
C#||------3-3-----2-2----------|
G#||------3-3-----3-3----------|
C#||--0-0-3-3-0-0-2-2-0-0-3p0--|
      . .     . .     . .


Guitar 2:
D#||----------------------------------------------------------------|
A#||------6---5-----6---5-----6---5---5--5--6-5-5-10--10-10-8--8-8--|
F#||--7-7---7---7-7---7---7-7---7---7-------------------------------|
C#||----------------------------------------------------------------|
G#||----------------------------------------------------------------|
C#||----------------------------------------------------------------|


D#||------------------------------------------------|
A#||--6----8----6---5----5----6----6/8----6----5-6--|
F#||------------------------------------------------|
C#||------------------------------------------------|
G#||------------------------------------------------|
C#||------------------------------------------------|


D#||----------------------------------------------------------------|
A#||------6---5-----6---5-----6---5---5--5--6-5-5-10--10-10-8--8-8--|
F#||--7-7---7---7-7---7---7-7---7---7-------------------------------|
C#||----------------------------------------------------------------|
G#||----------------------------------------------------------------|
C#||----------------------------------------------------------------|


D#||-------------------------------------------------|
A#||--6----8----6---5----5----6----6/8----6----5-6/--|
F#||-------------------------------------------------|
C#||-------------------------------------------------|
G#||-------------------------------------------------|
C#||-------------------------------------------------|



Solo
Guitar 2:
D#||--12--13--13/15--13--12--12/13----12--13----13/15----13--12--13--|
A#||-----------------------------------------------------------------|
F#||-----------------------------------------------------------------|
C#||-----------------------------------------------------------------|
G#||-----------------------------------------------------------------|
C#||-----------------------------------------------------------------|

      [--          -tremelo pick-        --]
D#||--15-13-12--13-12-----12-------------------------------------------------|
A#||------------------15-----15-13--15-13-12-13---12-13-13/15----13---12-13--|
F#||-------------------------------------------------------------------------|
C#||-------------------------------------------------------------------------|
G#||-------------------------------------------------------------------------|
C#||-------------------------------------------------------------------------|


   [--            -tremelo pick-                  --]
D#||--15------13----12-13---------|---151312--------|-------|
A#||------------------------------|-----------------|--15~--|
F#||------------------------------|-----------------|-------|
C#||------------------------x2----|------------x16--|-------|
G#||------------------------------|-----------------|-------|
C#||------------------------------|-----------------|-------|


Guitar 1:
D#||-------------------------------|---------------------------------|
A#||-------------------------------|---------------------------------|
F#||-------------------------------|---------------------------------|
C#||--0----10--7--8----7---0---x2--|--5--7--8------7777777777777777--|
G#||--0----10--7--8----7---0-------|--5--7--8------7777777777777777--|
C#||--0----10--7--8----7---0-------|--5--7--8------7777777777777777--|
                                                   ........                      



Bridge
Guitar 1/2:
D#||------------|------------|-----------------|-----------------------|
A#||------------|------------|-----------------|-----------------------|
F#||------------|------------|-----------------|-----------------------|
C#||--00---000--|--00---000--|--12\--00---000--|--00---000~------------|
G#||--00---000--|--00---000--|--12\--00---000--|--00---000~------------|
C#||--00---000--|--00---000--|--12\--00---000--|--00---000~------0h1~--|
                                                             .   .

D#||------------|------------|--------|
A#||------------|------------|--------|
F#||------------|------------|--------|
C#||--00---000--|--00---000--|--1/10--|
G#||--00---000--|--00---000--|--1/10--|
C#||--00---000--|--00---000--|--1/10--|


Guitar 1:
D#||-----------------------|-----------------------|
A#||-----------------------|-----------------------|
F#||-----------------------|-----------------------|
C#||-----------------------|-----------------------|
G#||--888777555888777-4-5--|--888777555888777-4-5--|
C#||-----------------------|-----------------------|


D#||-----------------------|----------------------|
A#||-----------------------|----------------------|
F#||-----------------------|----------------------|
C#||-----------------------|----------------------|
G#||--888777555888777-4-5--|--888777555888777-4~--|
C#||-----------------------|----------------------|


Guitar 2:
D#||------------|
A#||------------|
F#||------------|
C#||--00---000--| x4
G#||--00---000--|
C#||--00---000--|



Guitar 1/2:
D#||------|
A#||------|
F#||------|
C#||--0~--|
G#||--0~--|
C#||--0~--|



Chorus
Guitar 1:
D#||---------------------------------------------------|-------------------------------------------------|
A#||---------------------------------------------------|-------------------------------------------------|
F#||---------------------------------------------------|-------------------------------------------------|
C#||--8--8--8888--88--8880-7--7--777-12--121210--1010--|--7--7--7777--77--7777------3-3-----2-2----------| x2
G#||--8--8--8888--88--8880-8--8--888-12--121210--1010--|--8--8--8888--88--8888------3-3-----3-3----------|
C#||--8--8--8888--88--8880-7--7--777-12--121210--1010--|--7--7--7777--77--7777--0-0-3-3-0-0-2-2-0-0-3p0--|
                                                                                . .     . .     . .

D#||-------------------------------|
A#||-------------------------------|
F#||-------------------------------|
C#||------3-3-----2-2-----3p0--0~--|
G#||------3-3-----3-3-----3p0--0~--|
C#||--0-0-3-3-0-0-2-2-0-0-3p0--0~--|
      . .     . .     . .


Guitar 2:
D#||----------------------------------------------------------------|
A#||------6---5-----6---5-----6---5---5--5--6-5-5-10--10-10-8--8-8--|
F#||--7-7---7---7-7---7---7-7---7---7-------------------------------|
C#||----------------------------------------------------------------|
G#||----------------------------------------------------------------|
C#||----------------------------------------------------------------|


D#||------------------------------------------------|
A#||--6----8----6---5----5----6----6/8----6----5-6--|
F#||------------------------------------------------|
C#||------------------------------------------------|
G#||------------------------------------------------|
C#||------------------------------------------------|


D#||----------------------------------------------------------------|
A#||------6---5-----6---5-----6---5---5--5--6-5-5-10--10-10-8--8-8--|
F#||--7-7---7---7-7---7---7-7---7---7-------------------------------|
C#||----------------------------------------------------------------|
G#||----------------------------------------------------------------|
C#||----------------------------------------------------------------|


D#||--------------------------------------------------|
A#||--6----8----6---5----5----6----8----6----5--5-6~--|
F#||--------------------------------------------------|
C#||--------------------------------------------------|
G#||--------------------------------------------------|
C#||--------------------------------------------------|


D#||-------------------------------|
A#||--5----6----8----6----5--5h6~--|
F#||-------------------------------|
C#||-------------------------------|
G#||-------------------------------|
C#||-------------------------------|



Outro
Guitar 1 (Right):
D#||------0----------------------------|------0-----------------------------|
A#||------4----------------------------|------4-----------------------------|
F#||-----------------------------------|------------------------------------|
C#||--0-----6---------------------'5~--|--0-----6---------------------------|
G#||--0-----6---------3----------------|--0-----6---------3-----------------|
C#||--0-----6-0-3-5-0---5-0-3-5-0------|--0-----6-0-3-5-0---5-0-3-5-0-'3b~--|
              .     .     .     .                 .     .     .     .

Guitar 2 (Left):
D#||-----------------------------------|------------------------------------|
A#||-----------------------------------|------------------------------'5b~--|
F#||-----------------------------------|------------------------------------|
C#||-----------------------------------|------------------------------------|
G#||-----------------------------------|------------------------------------|
C#||-----------------------------------|------------------------------------|



Guitar 1:
D#||------0----------------------------|------0----------------------------|
A#||------4----------------------------|------4----------------------------|
F#||------------------------------10~--|-----------------------------------|
C#||--0-----6---------------------x----|--0-----6---------------------12\--|
G#||--0-----6---------3-----------8~---|--0-----6---------3-----------12\--|
C#||--0-----6-0-3-5-0---5-0-3-5-0------|--0-----6-0-3-5-0---5-0-3-5-0-12\--|
              .     .     .     .                 .     .     .     .

Guitar 2:
D#||------0----------------------------|------0----------------------------|
A#||------4----------------------------|------4----------------------------|
F#||------------------------------7~---|-----------------------------------|
C#||--0-----6---------------------x----|--0-----6---------------------12\--|
G#||--0-----6---------3-----------5~---|--0-----6---------3-----------12\--|
C#||--0-----6-0-3-5-0---5-0-3-5-0------|--0-----6-0-3-5-0---5-0-3-5-0-12\--|
              .     .     .     .                 .     .     .     .



Guitar 1:
D#||------0----------------------------|------0-------------------------------|
A#||------4----------------------------|------4-----------------------8~------|
F#||-----------------------------------|------------------------------11b12~--|
C#||--0-----6--------------------------|--0-----6-----------------------------|
G#||--0-----6---------3-----------'3~--|--0-----6---------3-------------------|
C#||--0-----6-0-3-5-0---5-0-3-5-0-'3~--|--0-----6-0-3-5-0---5-0-3-5-0---------|
              .     .     .     .                 .     .     .     .

Guitar 2:
D#||------0----------------------------|------0-------------------------------|
A#||------4----------------------------|------4-----------------------8~------|
F#||-----------------------------------|------------------------------11b12~--|
C#||--0-----6--------------------------|--0-----6-----------------------------|
G#||--0-----6---------3-----------'3~--|--0-----6---------3-------------------|
C#||--0-----6-0-3-5-0---5-0-3-5-0-'3~--|--0-----6-0-3-5-0---5-0-3-5-0---------|
              .     .     .     .                 .     .     .     .



Guitar 1:
D#||------0----------------------------|------0-----------------------------|
A#||------4----------------------------|------4-----------------------------|
F#||-----------------------------------|------------------------------------|
C#||--0-----6---------------------'5~--|--0-----6---------------------------|
G#||--0-----6---------3----------------|--0-----6---------3-----------------|
C#||--0-----6-0-3-5-0---5-0-3-5-0------|--0-----6-0-3-5-0---5-0-3-5-0-'3b~--|
              .     .     .     .                 .     .     .     .

Guitar 2:
D#||------0----------------------------|------0-----------------------------|
A#||------4----------------------------|------4-----------------------'5b~--|
F#||-----------------------------------|------------------------------------|
C#||--0-----6--------------------------|--0-----6---------------------------|
G#||--0-----6---------3----------------|--0-----6---------3-----------------|
C#||--0-----6-0-3-5-0---5-0-3-5-0-*3~--|--0-----6-0-3-5-0---5-0-3-5-0-------|
              .     .     .     .                 .     .     .     .



Guitar 1/2:
D#||------0--------------|
A#||------4--------------|
F#||---------------------|
C#||--0-----6---3-5-3-0--|
G#||--0-----6---3-5-3-0--|
C#||--0-----6-0-3-5-3-0--|
              .




Tablature Legend
----------------
 h   hammer-on
 p   pull-off
 b   bend
 pb  pre-bend
 r   release bend
 ~   hold / vibrato
 .   palm mute
 /   slide up
 \   slide down
 *   pinch harmonic
 '   natural harmonic
 x   mute note
 T   tap

            
            
Suggest correction
Creating personal tab
Creating personal tab
You can edit any tab online and save it as your Personal.

You can edit, replace or remove any tab part or add personal notes – all changes will be seen only by you.

Personal tabs can be accessed anytime from any device, even offline.
Learn more »
Give kudos to tab author, rate the tab!
1 2 3 4 5
comments
print report bad tab
guest
You may want to rate the tab now too:
select rating
Wanna post a correction for this tab? Suggest correction