Oops, an error
Loading. Please wait.

Port Of Call tab

version 1
version 1

Whole song

by Beirut
5,458 views 6 this week
no commentswrite comment
1 2 3 4 5
x 3
add to favorites
×
Save as Personal and add changes to this tab that will be seen only by you. Learn more ›
×
You can save this tab as Personal to edit and correct it or add notes. All changes will be seen only by you. Learn more »
launch autoscroll
font size
0
reset
how to read this tab
guitar tuner
edit
Autoscroll
slow
fast
+/-
esc
set tempo
stop
All chord names are relative to capo.
And remember this song is played on a ukulele so adjust which strings you use accordingly.

Chords used:

   Bm    A     D     Em
e|-2-----0-----2-----0-----|
B|-3-----2-----3-----0-----|
G|-4-----2-----2-----0-----|
D|-4-----2-----0-----2-----|
A|-2-----0-----------2-----|
E|-------------------0-----|


You have to figure out the strumming, but I'll give you a basic outline of the chords used.


This is the main bit, all amounts of strums are estimates, sorry I'm too lazy to make it 
perfect. Just listen and you can make it up from the tips this gives you.


e|--2-2-2-2-2-2-----0-0---5-5----0-0-0-0--0-2----2-2-2-3-2---0-0-0-0--|
B|--3-3-3-3-3-3-----3-3---3-3----2-2-2-2--0-2----3-3-3-3-3-3-2-2-2-2--|
G|--4-4-4-4-4-4-----4-4---4-4----2-2-2-2--2-2----2-2-2-2-2---2-2-2-2--|
D|--4-4-4-4-4-4-----4-4---4-4----2-2-2-2--2-2----0-0-0-0-0---2-2-2-2--|
A|-------------------------------0-0-0----0-0----0-0-0-0-0---0-0-0-0--|
E|--------------------------------------------------------------------|


This is the ending of each verse as well as the bridge in between choruses:

e|-0-(3)-0-(5)-0-0-0-0-|
B|-0--0--0--0--2-2-2-2-|
G|-0--0--0--0--2-2-2-2-|
D|-2--2--2--2--2-2-2-2-|
A|-2--2--2--2--0-0-0-0-|
E|-0--0--0--0--0-0-0-0-|

            
            
Suggest correction
Creating personal tab
Creating personal tab
You can edit any tab online and save it as your Personal.

You can edit, replace or remove any tab part or add personal notes – all changes will be seen only by you.

Personal tabs can be accessed anytime from any device, even offline.
Learn more »
Give kudos to tab author, rate the tab!
1 2 3 4 5
comments
print report bad tab
guest
You may want to rate the tab now too:
select rating
Wanna post a correction for this tab? Suggest correction