Oops, an error
Loading. Please wait.

Scenic World tab

version 1
version 1

Whole song

Interactive

by Beirut
4,082 views 3 this week
1 commentread comment
1 2 3 4 5
x 3
add to favorites
×
Save as Personal and add changes to this tab that will be seen only by you. Learn more ›
×
You can save this tab as Personal to edit and correct it or add notes. All changes will be seen only by you. Learn more »
launch autoscroll
font size
0
reset
how to read this tab
guitar tuner
edit
Autoscroll
slow
fast
+/-
esc
set tempo
stop
Author
Difficulty
-------------------------------------------------------------------------------
                             Scenic World - Beirut
-------------------------------------------------------------------------------
Tabbed by: tanooj2
Email: ojtano@gmail.com

Tuning: Standard

Ok I realize the song actually has no guitar in it, but you can play all the parts with
the guitar. There are just three main tracks for this song to this song; the main melody
that plays throughout the song, the bass notes under the melody and the bridge which 
comes after each verse.

Main melody

e|-----------------------------------------------------------------------------|
B|------7-------7--------------------------------------------------------------|
G|-7------7-7-------7--9--------9--7h9p7---------------------------------------|
D|--------------------------7--------------9-----------------------------------|
A|-----------------------------------------------------------------------------|
E|-----------------------------------------------------------------------------|


e|------------------------------------7------------------------------------------|
B|--------7-------7-----7-------8--------8---7-----------------------------------|
G|-----------------------------------------------7-------------------------------|
D|-(9)-9-----9-9-----9-----------------------------------------------------------|
A|-------------------------------------------------------------------------------|
E|-------------------------------------------------------------------------------|

repeat that throughout the song


Bass notes

For these you can play the associated chords or power chords, or just the notes.

A|---5------------------0-----------------2------------------------------------|
E|----------------------------------------------------------3------------------|

The chords would be D, A, Bmin and G.


Bridge


e|---------------10-----7--------5--7------9--10---9h10p9p7-----5--------5------------|
B|--------------------------------------------------------------------7---------------|
G|-7----------------------------------------------------------------------------------|
D|------------------------------------------------------------------------------------|
A|------------------------------------------------------------------------------------|
E|------------------------------------------------------------------------------------|

This is played four times after each verse, with the main melody and the bass part
playing underneath it.

            
            
Suggest correction
Creating personal tab
Creating personal tab
You can edit any tab online and save it as your Personal.

You can edit, replace or remove any tab part or add personal notes – all changes will be seen only by you.

Personal tabs can be accessed anytime from any device, even offline.
Learn more »
Give kudos to tab author, rate the tab!
1 2 3 4 5
comments
print report bad tab
1 comment total.
0 reply
jdecks271 10 Sep 23, 2013 09:37 PM

this is almost right but a little off in the first riff
it should be
e|---------------------------------------------------------------------|
B|------7---5---7------------------------------------------------------|
G|-7------7---------7--9--------9---7h9p7------------------------------|
D|--------------------------7-----7--------9---------------------------|
A|---------------------------------------------------------------------|
E|---------------------------------------------------------------------|

e|------------------------------------7--------------------------------|
B|--------7-------7-----7-------8--------8---7-------------------------|
G|-------------9---------------------------------7---------------------|
D|-(9)-9-----9-------9-------------------------------------------------|
A|---------------------------------------------------------------------|
E|---------------------------------------------------------------------|

very close! the rest was great, good work!

guest
You may want to rate the tab now too:
select rating
Wanna post a correction for this tab? Suggest correction