Oops, an error
Loading. Please wait.

Toma Mi Mano tab

version 2
version 2

Whole song

34 views 1 this week
no commentswrite comment
1 2 3 4 5
3 more votes to show rating
add to favorites
×
Save as Personal and add changes to this tab that will be seen only by you. Learn more ›
×
You can save this tab as Personal to edit and correct it or add notes. All changes will be seen only by you. Learn more »
launch autoscroll
font size
0
reset
how to read this tab
guitar tuner
edit
Autoscroll
slow
fast
+/-
esc
set tempo
stop
en el intro toquen lo que biene con los cuatro dedos un dedo por cuerda
como lo señale
despues eso si toquenlo como rasgue pero solo una vez cada
acorde
bien ahora si......


e--------3-------------------------------------------------
d--1-1-3-3-1-----------------------------------------------
g--0-2-0---2-------------INTRO-----------------------------
D--2-2-0---3-----------------------------------------------
A--3---2---3-----------------------------------------------
E----------------------------------------------------------
  C            Am             Em              F
toma mi mano ya todo estará bien no debes llorar
e--------------------------------------------------------
d--1--1--------------1--1------------0--------------1----
g----0-----------------2------------0---------------2----
D---2-----------------2------------0----------------3----
A--3-----------------0------------2-----------------3----
E--------------------------------------------------------
se que es difícil pero yo estaré aquí no te sientas solo
e----------------------------------------------1--1--1---
d--1--1---1----------1--1--1---------0----------1--1--1--
g----0-0---------------2-2----------0-0----------2--2----
D---2---2-------------2---2--------0---0-----------------
A--3-----------------0------------2------------3---------
E--------------------------------------------------------
si todo esta mal  y no puedes mas puedes buscarme
e-------------------------------------------------1------
d--1--1---1-------------1--1---------0---------1-1-------
g----0-0---------------2-2----------0-0--------2---------
D---2---2-------------2---2--------0---0-------3---------
A--3-----------------0------------2------------3---------
E--------------------------------------------------------
se que tu en mi lugar lo arias también sin pensarlo
e---------------------------------------------------------
d--1--1--1---------------1--1----------0---------1--1-----
g----0-0--0-------------2-2--2--------0-0----------2-2-2--
D---2---2--------------2---2---------0---0--------3---3---
A--3------------------0-------------2------------3--------
E---------------------------------------------------------
se que duele caer  y  hoy   estoy       aquí para ti
e--------------3----------------------------------------
d--1--1------0--0----1---1------1---1------1---1--------
g----0-0---------0------2-2----2-2---2----0-0---0-------
D---2---2--------------3---3--3---3------2---2----------
A--3-------2---------3-------3----------3---------------
E-------------------------------------------------------
como ayer como hoy sabes que puedes buscarme
e------------------------1---------------------------------
d-----0---0-----1-------1-1--------------------------------
g----0-0---0---2-2-----2---2-------------------------------
D---0---0-----2---2---3-----3------------------------------
A--2---------0-------3-------------------------------------
E----------------------------------------------------------

e----------------------------------------------------------
d-----1----------------1---------------0-----------1-------
g----0--0--2----------2-2--2----------0-0-0-------2-2------
D---2----2-----------2---2-----------0---0-------3---3-----
A--3----------------0---------------2-----------3-----3----
E----------------------------------------------------------
se lo que sientes y aunque parezca así no es el final
e------------------------------------------------1-----1-----
d-----1---------------1---------------0-------------1---1--1-
g----0---------------2-2-------------0-------------2-2---2---
D---2---------------2---2-----------0------------------------
A--3---------------0---------------2-----------3-3-----------
E------------------------------------------------------------
esto no es fácil pero yo estaré aquí no te sientas solo
e-----------------------------------------------1-1-1---
d--1--1---------------1---------------0---------1-1-1---
g----0-0-0-----------2-2-2-----------0-0----------2-2---
D---2---2-----------2---2-----------0---0-----------3---
A--3---------------0---------------2------------3-3-3---
E-------------------------------------------------------
se que tu en mi lugar lo arias también sin pensarlo
e-------------------------------------------------------
d--1--1------------1--1---------------0-------1--1------
g----0-0-0-----------2-2-2-----------0-0--------2-------
D---2---2-----------2---2-----------0---0------3--------
A--3---------------0---------------2----------3---------
E-------------------------------------------------------
se que duele caer y hoy estoy aquí para  ti
e-------------------------------------------------------
d--1--1-----------0------------1-------1--1----1--------
g----0-0---------0--0---------2--2----2-2--2---0--------
D---2----------------0------------3--3---3-----2--------
A--3------------2---------3---------3----------3--------
E-------------------------------------------------------
como ayer como hoy sabes que puedes buscarme
fin...

bueno ps espero que les guste
saludos a la 229 ludmila yivkova turno matutino
tambien espero que le guste a peke y a fredel que me ayudaron
a tocarla
sugerencias arriba esta mi corre

            
            
Suggest correction
Creating personal tab
Creating personal tab
You can edit any tab online and save it as your Personal.

You can edit, replace or remove any tab part or add personal notes – all changes will be seen only by you.

Personal tabs can be accessed anytime from any device, even offline.
Learn more »
Give kudos to tab author, rate the tab!
1 2 3 4 5
comments
print report bad tab
guest
Wanna post a correction for this tab? Suggest correction