Oops, an error
Loading. Please wait.

The Downfall tab

version 1
version 1

Whole song

5,912 views 1 this week
4 commentsread comments
1 2 3 4 5
x 4
add to favorites
×
Save as Personal and add changes to this tab that will be seen only by you. Learn more ›
×
You can save this tab as Personal to edit and correct it or add notes. All changes will be seen only by you. Learn more »
launch autoscroll
font size
0
reset
how to read this tab
guitar tuner
edit
Autoscroll
slow
fast
+/-
esc
set tempo
stop
-------------------------------------------------------------------------------
                      The Downfall - Belay My Last
-------------------------------------------------------------------------------
Tabbed by:Ruben.Breakdown

I tabbed this all by ear so im pretty sure its not note for note, but i think its pretty close..

| /  slide up
| \  slide down
| h  hammer-on
| p  pull-off
| ~  vibrato
| +  harmonic
| x  Mute note

Tuning:C#,G#,C#,F#,A#,D#

Verse 1 x2
|----------------------------------------------------------------------------|
|----------------------------------------------------------------------------|
|-------------------------------------------------------------4--6---8---/10-|
|----------------------------------------------3---4---6---8-----------------|
|-0---4----------4------------/8---4---6---8---------------------------------|
|-0------3---3------3---3----------------------------------------------------|

|----------------------------------------------------------------------------|
|----------------------------------------------------------------------------|
|--------------------------------------------------------------4--6--8---/13-|
|-----------------------------------------------3---4---6---8----------------|
|-0---4----------4------------------4---6---8--------------------------------|
|-0------3---3------3---3-----/8---------------------------------------------|

(Play 12,10 after the first time you play verse 1)(listen to the song)
|---------------------------------------------------------------------------|
|---------------------------------------------------------------------------|
|--------------------6-/9---------------------------------------------------|
|---------------------------------------------------------------------------|
|-12--10---0-0-0-0---4-/7---00-0000-0000000000-00-0000-0000000000-----------|
|----------0-0-0-0----------00-0000-0000000000-00-0000-0000000000-----------|

|----------------------------------------------10--8--6---------------------|
|--------------------------------------------------------10--8--7-----------|
|--6h7p6---6-----6h7p6---6-----6h7p6---6---------------------------(x4)-----|
|--------0---00--------0---00--------0---00---------------------------------|
|---------------------------------------------------------------------------|
|---------------------------------------------------------------------------|

|---------------------------------------------------------------------------|
|---------------------------------------------------------------------------|
|---------------------------------------------------------------------------|
|---------------------------------------------------------------------------|
|-0-0-000--10\--321-321-321-321--0-/-4-\-1-/-3--321-321-321-321--0/4\1--+3--|
|-0-0-000--10\--321-321-321-321--0-/-4-\-1-/-3--321-321-321-321--0/4\1------|

|---------------------------------------------------------------------------|
|---------------------------------------------------------------------------|
|---------------------------------------------------------------------------|
|---------------------------------------------------------------------------|
|-321-321-321-321--0-/-4-\-1-/-3--321-321-321-321--0/4\1--+3----------------|
|-321-321-321-321--0-/-4-\-1-/-3--321-321-321-321--0/4\1--------------------|

(Listen to song for pauses)
|-------------------------------------------------10-8-6--------------------|
|---------------------------------------------------------10-8-6------------|
|------------------------------------------------------------------9-7-6----|
|-------------------------------------------------------------------------8-|
|-0-4-3-0-5-3-4-5--0--8-7-3-6-3-2-3-----(x9)--------------------------------|
|-0-2-1-0-3-1-2-3--0--8-7-3-6-3-2-3-----------------------------------------|

|---------------------------------------------------------------------------|
|---------------------------------------------------------------------------|
|---------------------------------------------------------------------------|
|---------------------------------------------------------------------------|
|-0-----------------------(x4)----------------------------------------------|
|-0--8--7--3--6--2--11~-----------------------------------------------------|

Bass Solo
|---------------------------------------------------------------------------|
|---------------------------------------------------------------------------|
|---------------------------------------------------------------------------|
|---------------------------------------------------------------------------|
|---------------------------------------------------------------------------|
|---------------------------------------------------------------------------|

(x3)
|----------------------------------------------------------------13p12-------|
|----------------------------------------------------------------------13----|
|----------------------------------------------------------------------------|
|--------7-7-9--9-10-----10-10-14-10------14-14-15-12--------12-----------12-|
|-0000---5-5/7-/7-8-------8-8/12\8--------12-12/13\10--------10--------------|
|-0000---------------0000-------------0000---------------0000----------------|

|--------------------------------------------------13p12--------------------|
|--------------------------------------------------------13-----------------|
|------------------------------------------------------------12-------------|
|-----------15-14-12-14-12-10-9-12-10-9-5-10-9------------------------------|
|-0000------13-12-10-12-10-8--7-10-8--7-3-8--7------------------------------|
|-0000----------------------------------------------------------------------|

|---------------------------------------------------------------------------|
|---------------------------------------------------------------------------|
|--------------14(14)14(14)-10(10)10(10)--------------14(14)14(14)----------|
|-12(12)12(12)---------------------------12(12)12(12)-----------------------|
|---------------------------------------------------------------------------|
|---------------------------------------------------------------------------|

|---------------------------------------------------------------------------
|---------------------------------------------------------------------------
|-10(10)10(10)--------------14(14)14(14)-------------12(12)12(12)-9|(9)9(9)
|--------------12(12)12(12)--------------10(10)10(10)-----------------------
|---------------------------------------------------------------------------
|---------------------------------------------------------------------------

|---------------------------------------------------------------------------|
|---------------------------------------------------------------------------|
|---------------------------------------------14(14)14(14)--10(10)10(10)----|
|-10(10)10(10)------------------(12)12(12)12--------------------------------|
|---------------13-12-13-15-16----------------------------------------------|
|---------------------------------------------------------------------------|

|---------------------------------------------------------------------------|
|---------------------------------------------------------------------------|
|---------------14(14)14(14)--10(10)10(10)---------------14(14)14(14)-------|
|-(12)12(12)12------------------------------(12)12(12)12--------------------|
|---------------------------------------------------------------------------|
|---------------------------------------------------------------------------|

|---------------------------------------------------------------------------|
|---------------------------------------------------------------------------|
|----------------12(12)12(12)-9(9)9(9)--------------------------------------|
|--10(10)10(10)-------------------------10(10)10(10)------------------------|
|---------------------------------------------------------------------------|
|-------------------------------------------------------8-7-8-10-11---------|

|---------------------------------------------------------------------------|
|---------------------------------------------------------------------------|
|---------------------------------------------------------------------------|
|------------------------------------------------------(x2)-----------------|
|-0-00000-0000-8-0000-7-0000-5-0000-0000-3-0000-2-3-------------------------|
|-0-00000-0000-8-0000-7-0000-5-0000-0000-3-0000-2-3-------------------------|


Ending x2 (pick each note 4 times)
|----------17---13--------17---13-------17-------15---12-------15---12------|
|----15--------------15-------------15------13-------------13---------------|
|---------------------------------------------------------------------------|
|---------------------------------------------------------------------------|
|---------------------------------------------------------------------------|
|---------------------------------------------------------------------------|

|-------15---------13---10---------13----10--------13-------15--12----------|
|--13---------11-------------11---------------11--------13----------13------|
|---------------------------------------------------------------------------|
|---------------------------------------------------------------------------|
|---------------------------------------------------------------------------|
|---------------------------------------------------------------------------|

            
            
Suggest correction
Creating personal tab
Creating personal tab
You can edit any tab online and save it as your Personal.

You can edit, replace or remove any tab part or add personal notes – all changes will be seen only by you.

Personal tabs can be accessed anytime from any device, even offline.
Learn more »
comments
print report bad tab
4 comments total. Showing first comments.
0 reply
ryanb9213 50 Jul 22, 2009 05:48 PM

This song is amazing. This band is so technical and unique. They need more songs tabbed out though. :( Work with me on a Power Tab version?

0 reply
MHI 62 Aug 13, 2009 05:45 AM

I'm gonna try this shit out.
5 stars for you.
Now, if someone could tab this in GuitarPro.
Hm...

0 reply
killtrend 73 Dec 13, 2009 11:28 AM

@MHI, You can use the Ascii function in file>export but you'd need to find the tempo the down beat and shit, I'm way to lazy to do that though, and nice tab 5*s for sure :)

guest
You may want to rate the tab now too:
select rating
Wanna post a correction for this tab? Suggest correction