Oops, an error
Loading. Please wait.

Sanity Obscure tab

version 1
version 1

Whole song

Interactive

499 views 1 this week
no commentswrite comment
1 2 3 4 5
3 more votes to show rating
add to favorites
×
Save as Personal and add changes to this tab that will be seen only by you. Learn more ›
×
You can save this tab as Personal to edit and correct it or add notes. All changes will be seen only by you. Learn more »
launch autoscroll
font size
0
reset
how to read this tab
guitar tuner
edit
Autoscroll
slow
fast
+/-
esc
set tempo
stop
#----------------------------------PLEASE NOTE---------------------------------#
#This file is the author's own work and represents their interpretation of the #
#song. You may only use this file for private study, scholarship, or research. #
#------------------------------------------------------------------------------#

SANITY OBSCURE
As recorded by Believer
(From the 1991 Album SANITY OBSCURE)

Transcribed by Ibeanez
	



D
0 2 2 1 0 x
	
Eb
1 3 3 2 1 x

Gtr I (D G C F A D) - 'Rhythm1/Lead1'
Gtr II (D G C F A D) - 'Rhythm2'
Gtr III (D G C F A D) - 'Lead2'
Gtr IV (D G C F A D) - 'Acoustic'

  Q=148
 4/4
  Gtrs I, II
     PM  PM  PM       PM  PM  PM       PM  PM  PM       PM  PM  PM
  Q  E E E E E E   Q  E E E E E E   Q  E E E E E E   Q  E E E E E E
|----------------|----------------|----------------|-----------------|
|-0----1---1---1-|-0----1---1---1-|-0----1---1---1-|-0----1---1---1--|
|-1----2---2---2-|-1----2---2---2-|-1----2---2---2-|-1----2---2---2--|
|-2----3---3---3-|-2----3---3---3-|-2----3---3---3-|-2----3---3---3--|
|-2----3---3---3-|-2----3---3---3-|-2----3---3---3-|-2----3---3---3--|
|-0--0-1-0-1-0-1-|-0--0-1-0-1-0-1-|-0--0-1-0-1-0-1-|-0--0-1-0-1-0-1--|


  Gtr I
   Q.     E  +H           Q.     E  +H
|----------------------|----------------------|
|----------------------|----------------------|
|-10-----11-(11)-------|-10-----11-(11)-------|
|--9-----10-(10)-------|--9-----10-(10)-------|
|--8------9--(9)-------|--8------9--(9)-------|
|----------------------|----------------------|
|
| Gtr II
|      PM     PM   PM         PM     PM   PM
|  Q   E  E   E  E E E    Q   E  E   E  E E E
|----------------------|----------------------|
|--0------1------1---1-|--0------1------1---1-|
|--1------2------2---2-|--1------2------2---2-|
|--2------3------3---3-|--2------3------3---3-|
|--2------3------3---3-|--2------3------3---3-|
|--0---0--1---0--1-0-1-|--0---0--1---0--1-0-1-|


   Q.     E  +H           Q.     E  +H
|----------------------|----------------------|
|----------------------|----------------------|
|-10-----11-(11)-------|-10-----11-(11)-------|
|--9-----10-(10)-------|--9-----10-(10)-------|
|--8------9--(9)-------|--8------9--(9)-------|
|----------------------|----------------------|
|
|      PM     PM   PM         PM     PM   PM
|  Q   E  E   E  E E E    Q   E  E   E  E E E
|----------------------|----------------------|
|--0------1------1---1-|--0------1------1---1-|
|--1------2------2---2-|--1------2------2---2-|
|--2------3------3---3-|--2------3------3---3-|
|--2------3------3---3-|--2------3------3---3-|
|--0---0--1---0--1-0-1-|--0---0--1---0--1-0-1-|


  PM|   PM|    PM------|   PM|    PM------|   PM|    PM------|   PM|
  E E E E E  E E E   E E E E E  E E E   E E E E E  E E E   E E E E E  E E E
|------------------|------------------|------------------|------------------|
|------------------|------------------|------------------|------------------|
|-----9-----10-----|-----9-----10-----|-----9-----10-----|-----9-----10-----|
|---8-----9----7---|---8-----9----7---|---8-----9----7---|---8-----9----7---|
|-7-----8--------8-|-7-----8--------8-|-7-----8--------8-|-7-----8--------8-|
|------------------|------------------|------------------|------------------|
|
|     PM  PM   PM        PM  PM   PM        PM  PM   PM        PM  PM   PM
| Q   E E E  E E E   Q   E E E  E E E   Q   E E E  E E E   Q   E E E  E E E
|------------------|------------------|------------------|------------------|
|-0-----1----1---1-|-0-----1----1---1-|-0-----1----1---1-|-0-----1----1---1-|
|-1-----2----2---2-|-1-----2----2---2-|-1-----2----2---2-|-1-----2----2---2-|
|-2-----3----3---3-|-2-----3----3---3-|-2-----3----3---3-|-2-----3----3---3-|
|-2-----3----3---3-|-2-----3----3---3-|-2-----3----3---3-|-2-----3----3---3-|
|-0---0-1-0--1-0-1-|-0---0-1-0--1-0-1-|-0---0-1-0--1-0-1-|-0---0-1-0--1-0-1-|


  D   D  EbD  Eb D Eb  D   D  EbD  Eb D Eb
  Gtr II
  Q    E E  E  E E E   Q    E E  E  E E E
  |    | |  |  | | |   |    | |  |  | | |
  /    o /  o  / o /   /    o /  o  / o /

  Gtr I
  E E  E E  E  E E E   E E  E E  E  E E E
|--------------------|--------------------|
|--------------------|--------------------|
|------9------10-----|------9------10-----|
|---8-------9----7---|---8-------9----7---|
|-7------8---------8-|-7------8---------8-|
|--------------------|--------------------|
|
| Gtr III
| E E  E E  E  E E E   E E  E E  E  E E E
|--------------------|--------------------|
|--------------------|--------------------|
|-----10------11-----|-----10------11-----|
|---9------10----8---|---9------10----8---|
|-8------9---------9-|-8------9---------9-|
|--------------------|--------------------|


  D   D  EbD  Eb D Eb  D   D  EbD  Eb D Eb
  Q    E E  E  E E E   Q    E E  E  E E E
  |    | |  |  | | |   |    | |  |  | | |
  /    o /  o  / o /   /    o /  o  / o /

  E E  E E  E  E E E   E E  E E  E  E E E
|--------------------|--------------------|
|--------------------|--------------------|
|------9------10-----|------9------10-----|
|---8-------9----7---|---8-------9----7---|
|-7------8---------8-|-7------8---------8-|
|--------------------|--------------------|
|
| E E  E E  E  E E E   E E  E E  E  E E E
|--------------------|--------------------|
|--------------------|--------------------|
|-----10------11-----|-----10------11-----|
|---9------10----8---|---9------10----8---|
|-8------9---------9-|-8------9---------9-|
|--------------------|--------------------|


  D     D  Eb D  Eb D  Eb   D     D  Eb D  Eb D  Eb
   Q     E  E  E  E  E  E    Q     E  E  E  E  E  E
   |     |  |  |  |  |  |    |     |  |  |  |  |  |
   /     o  /  o  /  o  /    /     o  /  o  /  o  /

   E  E  E  E  E  E  E  E    E  E  E  E  E  E  E  E
|-------------------------|-------------------------|
|-------------------------|-------------------------|
|--------9-------10-------|--------9-------10-------|
|-----8--------9-----7----|-----8--------9-----7----|
|--7--------8-----------8-|--7--------8-----------8-|
|-------------------------|-------------------------|
|
|  E  E  E  E  E  E  E  E    E  E  E  E  E  E  E  E
|-------------------------|-------------------------|
|-------------------------|-------------------------|
|-------12-------13-------|-------12-------13-------|
|----11-------12----11----|----11-------12----11----|
|-10-------11----------12-|-10-------11----------12-|
|-------------------------|-------------------------|


  D     D  Eb D  Eb D  Eb   D     D  Eb D  Eb D  Eb
   Q     E  E  E  E  E  E    Q     E  E  E  E  E  E
   |     |  |  |  |  |  |    |     |  |  |  |  |  |
   /     o  /  o  /  o  /    /     o  /  o  /  o  /

   E  E  E  E  E  E  E  E    E  E  E  E  E  E  E  E
|-------------------------|-------------------------|
|-------------------------|-------------------------|
|--------9-------10-------|--------9-------10-------|
|-----8--------9-----7----|-----8--------9-----7----|
|--7--------8-----------8-|--7--------8-----------8-|
|-------------------------|-------------------------|
|
|  E  E  E  E  E  E  E  E    E  E  E  E  E  E  E  E
|-------------------------|-------------------------|
|-------------------------|-------------------------|
|-------12-------13-------|-------12-------13-------|
|----11-------12----11----|----11-------12----11----|
|-10-------11----------12-|-10-------11----------12-|
|-------------------------|-------------------------|


  Gtrs I, II
     PM  PM          PM  PM  PM       PM  PM          PM  PM  PM
  Q  E E E E Q    Q  E E E E E E   Q  E E E E Q    Q  E E E E E E
|---------------|----------------|---------------|----------------|
|-0----1---1----|-0----1---1---1-|-0----1---1----|-0----1---1---1-|
|-1----2---2----|-1----2---2---2-|-1----2---2----|-1----2---2---2-|
|-2----3---3----|-2----3---3---3-|-2----3---3----|-2----3---3---3-|
|-2----3---3----|-2----3---3---3-|-2----3---3----|-2----3---3---3-|
|-0--0-1-0-1----|-0--0-1-0-1-0-1-|-0--0-1-0-1----|-0--0-1-0-1-0-1-|


  PM------------------------------------------------------------------|
  E E E E E E E E   E E E E E E E E   E E E E E E E E   E E E E E E E E
|-----------------|-----------------|-----------------|-----------------|
|-----------------|-----------------|-----------------|-----------------|
|-1-1-1-2-2-2-2-2-|-1-1-1-2-2-2-2-2-|-1-1-1-2-2-2-2-2-|-1-1-1-2-2-2-2-2-|
|-2-2-2-3-3-3-3-3-|-2-2-2-3-3-3-3-3-|-2-2-2-3-3-3-3-3-|-2-2-2-3-3-3-3-3-|
|-2-2-2-3-3-3-3-3-|-2-2-2-3-3-3-3-3-|-2-2-2-3-3-3-3-3-|-2-2-2-3-3-3-3-3-|
|-0-0-0-1-1-1-1-1-|-0-0-0-1-1-1-1-1-|-0-0-0-1-1-1-1-1-|-0-0-0-1-1-1-1-1-|


  Gtr I
  E E E  E  E  E  E  E   E E E  E  E  E  E  E
|----------------------|----------------------|
|----------------------|----------------------|
|----------------------|----------------------|
|-9-9-9-10-10-10-10-10-|-9-9-9-10-10-10-10-10-|
|-8-8-8--9--9--9--9--9-|-8-8-8--9--9--9--9--9-|
|-7-7-7--8--8--8--8--8-|-7-7-7--8--8--8--8--8-|
|
| Gtr II
| PM-------------------------------------------
| E E E  E  E  E  E  E   E E E  E  E  E  E  E
|----------------------|----------------------|
|----------------------|----------------------|
|-1-1-1--2--2--2--2--2-|-1-1-1--2--2--2--2--2-|
|-2-2-2--3--3--3--3--3-|-2-2-2--3--3--3--3--3-|
|-2-2-2--3--3--3--3--3-|-2-2-2--3--3--3--3--3-|
|-0-0-0--1--1--1--1--1-|-0-0-0--1--1--1--1--1-|


  E E E  E  E  E  E  E   E E E  E  E  E  E  E
|----------------------|----------------------|
|----------------------|----------------------|
|----------------------|----------------------|
|-9-9-9-10-10-10-10-10-|-9-9-9-10-10-10-10-10-|
|-8-8-8--9--9--9--9--9-|-8-8-8--9--9--9--9--9-|
|-7-7-7--8--8--8--8--8-|-7-7-7--8--8--8--8--8-|
|
|------------------------------------------|
| E E E  E  E  E  E  E   E E E  E  E  E  E  E
|----------------------|----------------------|
|----------------------|----------------------|
|-1-1-1--2--2--2--2--2-|-1-1-1--2--2--2--2--2-|
|-2-2-2--3--3--3--3--3-|-2-2-2--3--3--3--3--3-|
|-2-2-2--3--3--3--3--3-|-2-2-2--3--3--3--3--3-|
|-0-0-0--1--1--1--1--1-|-0-0-0--1--1--1--1--1-|


                   7/8
  Gtrs I, II
  E E E E E E E E   E. E. S E. Q
|-----------------|---------------|
|-----------------|---------------|
|-----------------|----4----4-----|
|---5-------------|----6----6-----|
|-2---3---3---4-5-|----6----6-----|
|-------3---4---3-|----0----0-----|


  Q=125
 4/4
  Gtr I
              PM----|     PM|                   PM----|     PM|
  S S S S S S S T T S S S S S S E   S S S S S S S T T S S S S S S E
|---------------------------------|----------------------------------|
|---------------------------------|----------------------------------|
|---------------------------------|----------------------------------|
|-6-----7---------------------8s7-|-6-----7--------------------------|
|---5-----6-----------7s8-----6s5-|---5-----6-----------8s7-----9s8--|
|-----5-----0-0-0-0-0-5s6-0-0-----|-----5-----0-0-0-0-0-6s5-0-0-7s6--|


    Gtrs I, II
                PM----|     PM|                   PM----|     PM|
    S S S S S S S T T S S S S S S E   S S S S S S S T T S S S S S S E   3x
||----------------------------------|-----------------------------------||
||o---------------------------------|----------------------------------o||
||----------------------------------|-----------------------------------||
||--6-----7---------------------8s7-|-6-----7---------------------------||
||o---5-----6-----------7s8-----6s5-|---5-----6-----------8s7-----9s8--o||
||------5-----0-0-0-0-0-5s6-0-0-----|-----5-----0-0-0-0-0-6s5-0-0-7s6---||


  $$
  Gtr IV
  E E  E   E E  E  E  E
|-----------------------|
|-----------------------|
|------7--------9-------|
|---5-10-----7-12--8----|
|-7-7-----/9-9----10--9-|
|-8------/10---------11-|


    Gtr I
    PM------------|    ~~ PM-------------
    T T S S T T S S  E E. T T S S T T S
||--------------------------------------|
||o-------------------------------------|
||--------------------------------------|
||--------------------------------------|
||o-----------------10-9----------------|
||--0-0-0-0-0-0-0-0-------0-0-0-0-0-0-0-|
|
|   Gtr II
|   PM------------|    ~~ PM-------------
|   T T S S T T S S  E E. T T S S T T S
||--------------------------------------|
||o-------------------------------------|
||--------------------------------------|
||--------------------------------------|
||o-----------------10-9----------------|
||--0-0-0-0-0-0-0-0-------0-0-0-0-0-0-0-|


 ---------------------|
  S T T S S T T S T T S  S  S  S  S  S S  S S   4x
|-----------------------------------------------||
|----------------------------------------------o||
|-----------------------------------------------||
|-----------------------------------------------||
|--------------------------10----10----9----9--o||
|-2-2-2-2-2-2-2-2-2-2-2-12----12----11---11-----||
|
|---------------------|
| S T T S S T T S T T S  S  S  S  S  S S  S S   4x
|-----------------------------------------------||
|----------------------------------------------o||
|-----------------------------------------------||
|---------------------------8-----8----7----7---||
|-----------------------10----10-----9----9----o||
|-2-2-2-2-2-2-2-2-2-2-2-------------------------||


    $
    Gtrs I, II
                PM----|     PM|                   PM----|     PM|
    S S S S S S S T T S S S S S S E   S S S S S S S T T S S S S S S E
||----------------------------------|-----------------------------------||
||o---------------------------------|----------------------------------o||
||----------------------------------|-----------------------------------||
||--6-----7---------------------8s7-|-6-----7---------------------------||
||o---5-----6-----------7s8-----6s5-|---5-----6-----------8s7-----9s8--o||
||------5-----0-0-0-0-0-5s6-0-0-----|-----5-----0-0-0-0-0-6s5-0-0-7s6---||


    Gtr I
    PM------------|    ~~  PM-------------
    T T S S T T S S  E E.  T T S S T T S
||---------------------------------------|
||o--------------------------------------|
||---------------------------------------|
||---------------------------------------|
||o-----------------10-9-----------------|
||--0-0-0-0-0-0-0-0--------0-0-0-0-0-0-0-|
|
|   Gtr II
|   PM------------|    ~~  PM-------------
|   T T S S T T S S  E E.  T T S S T T S
||---------------------------------------|
||o--------------------------------------|
||---------------------------------------|
||---------------------------------------|
||o-----------------10-9-----------------|
||--0-0-0-0-0-0-0-0--------0-0-0-0-0-0-0-|


 ---------------------|
  S T T S S T T S T T S  S  S  S  S  S S  S S  4x
|----------------------------------------------||
|---------------------------------------------o||
|----------------------------------------------||
|----------------------------------------------||
|--------------------------10----10----9----9-o||
|-2-2-2-2-2-2-2-2-2-2-2-12----12----11---11----||
|
|---------------------|
| S T T S S T T S T T S  S  S  S  S  S S  S S  4x
|----------------------------------------------||
|---------------------------------------------o||
|----------------------------------------------||
|---------------------------8-----8----7----7--||
|-----------------------10----10-----9----9---o||
|-2-2-2-2-2-2-2-2-2-2-2------------------------||


  Gtrs I, II
        PM--------|   PM      PM        PM--------|   PM      PM
  S S E S T T T T S E S S S E S   S S E S T T T T S E S S S E S
|-------------------------------|----------------------------------|
|-------------------------------|----------------------------------|
|-------------------------------|----------------------------------|
|-7s8s7-----------------5---5---|-7s8s7----------------------------|
|-5s6s5-------------5---3---3---|-5s6s5-------------5---3---3------|
|-------0-0-0-0-0-0-3-0-------0-|-------0-0-0-0-0-0-3-0-1---1-0----|


                                                     D.S. alTo Coda
        PM--------|   PM      PM        PM--------|   PM      PM
  S S E S T T T T S E S S S E S   S S E S T T T T S E S S S E S
|-------------------------------|-----------------------------------|
|-------------------------------|-----------------------------------|
|-------------------------------|-----------------------------------|
|-7s8s7-----------------5---5---|-7s8s7-----------------------------|
|-5s6s5-------------5---3---3---|-5s6s5-------------5---3---3-------|
|-------0-0-0-0-0-0-3-0-------0-|-------0-0-0-0-0-0-3-0-1---1-0-----|


    &                                                   To Dbl. Coda
          PM--------|   PM      PM        PM--------|   PM      PM
    S S E S T T T T S E S S S E S   S S E S T T T T S E S S S E S
||--------------------------------|-----------------------------------||
||o-------------------------------|----------------------------------o||
||--------------------------------|-----------------------------------||
||--7s8s7-----------------5---5---|-7s8s7-----------------------------||
||o-5s6s5-------------5---3---3---|-5s6s5-------------5---3---3------o||
||--------0-0-0-0-0-0-3-0-------0-|-------0-0-0-0-0-0-3-0-1---1-0-----||


       PM|   PM|   PM|     PM----|   PM----|   PM--|
    Q  S S E S S E S S E   S S S S E S S S S E S e S   4x
||-----------------------|-----------------------------||
||o-0------1-----1-----1-|---------1---------1--------o||
||--1------2-----2-----2-|---------2---------2---------||
||--2------3-----3-----3-|---------3---------3---------||
||o-2--2-2-3-2-2-3-2-2-3-|-2-2-2-2-3-2-2-2-2-3-3-3-3--o||
||--0--0-0-1-0-0-1-0-0-1-|-0-0-0-0-1-0-0-0-0-1-1-1-1---||


   3/4
    Gtr I
    PM----|     PM----|
    S S S S S S S S S S S S
||--------------------------|
||o-------------------------|
||--------------------------|
||------------8-----------6-|
||o---------7-----------5---|
||--0-0-0-0-----0-0-0-0-----|
|
|   Gtr II
|   PM----|     PM----|
|   S S S S S S S S S S S S
||--------------------------|
||o-------------------------|
||--------------------------|
||------------8-----------6-|
||o---------7-----------5---|
||--0-0-0-0-----0-0-0-0-----|


                         5/4
  PM|                     PM----|
  S S S S E S S S S S S   S S S S E E  E E  E  E E E
|-----------------------|---------------------------|
|-----------------------|---------------------------|
|---------9-------------|--------------9------10----|
|-------8-----8---7---7-|-----------8-------9----7--|
|-----7-----7---6---6---|---------7------8---------8|
|-0-0-------------------|-0-0-0-0-------------------|
|
| PM|                     PM----|
| S S S S E S S S S S S   S S S S E E  E E  E  E E E
|-----------------------|---------------------------|
|-----------------------|---------------------------|
|---------9-------------|-------------10------11----|
|-------8-----8---7---7-|-----------9------10----8--|
|-----7-----7---6---6---|---------8------9---------9|
|-0-0-------------------|-0-0-0-0-------------------|


 3/4
  Gtrs I, II
  PM----|     PM----|       PM|
  S S S S S S S S S S S S   S S S S E S S S S S S
|-------------------------|-----------------------|
|-------------------------|-----------------------|
|-------------------------|---------9-------------|
|-----------8-----------6-|-------8-----8---7---7-|
|---------7-----------5---|-----7-----7---6---6---|
|-0-0-0-0-----0-0-0-0-----|-0-0-------------------|


  PM----|
  S S S S S S  S S S S E
|------------------------------||
|-----------------------------o||
|------------------------------||
|---------8-7----------7tr8----||
|-------------10-8-7-8--------o||
|-0-0-0-0----------------------||


   4/4
    Gtr III
     PM------|         PM---|
     S  S  S  S  S  S  S  S  S  E     E     E    S
||-------------------------------------------------|
||o------------------------------------------------|
||-------------------------------------------------|
||---------------5--4------------------------------|
||o--2--2--2--2--3--2--2--2--2--4-----5-----7----5-|
||---0--0--0--0--------0--0--0--2-----3-----5----3-|
|
|   Gtr I
|    S  S  S  S  S  S  S  S  S  S  S  S  S  S  S S
||-------------------------------------------------|
||o------------------------------------------------|
||-----13----13----12----12----14----14----13------|
||--14----14----13----13----13----13----12----12---|
||o------------------------------------------------|
||-------------------------------------------------|
|
|   Gtr II
|    S  S  S  S  S  S  S  S  S  S  S  S  S  S  S S
||-------------------------------------------------|
||o------------------------------------------------|
||-----14----14----13----13----15----15----14------|
||--15----15----14----14----14----14----13----13---|
||o------------------------------------------------|
||-------------------------------------------------|


   PM-----------|        PM--|
   S    S     S S  S  S  S S  S E    E    E S
|-----------------------------------------------||
|----------------------------------------------o||
|-----------------------------------------------||
|------------------5--4-------------------------||
|--2----2-----2-2--3--2--2-2--2-4----5----4-5--o||
|--0----0-----0-0--------0-0--0-2----3----2-3---||
|
|  |---3---|
|  S  S    S  S S  S  S  S S  e    e    Q
|-----------------------------------------------||
|----------------------------------------------o||
|-12-13---12------------------------------------||
|------------15---12-13-15---13---12------------||
|--------------------------------------14------o||
|-----------------------------------------------||
|
|  |---3---|
|  S  S    S  S S  S  S  S S  e    e    Q
|-----------------------------------------------||
|-12-13---12-----------------------------------o||
|------------14------12-13---12-----------------||
|-----------------15--------------15---12-------||
|----------------------------------------------o||
|-----------------------------------------------||


     PM------|         PM---|
     S  S  S  S  S  S  S  S  S  E     E     E    S
||-------------------------------------------------|
||o------------------------------------------------|
||-------------------------------------------------|
||---------------5--4------------------------------|
||o--2--2--2--2--3--2--2--2--2--4-----5-----7----5-|
||---0--0--0--0--------0--0--0--2-----3-----5----3-|
|
|    S  S  S  S  S  S  S  S  S  S  S  S  S  S  E
||--------------------11-12-11---------------------|
||o-------------12-13----------13-12---------------|
||-----11-13-14----------------------14-13-11------|
||--14----------------------------------------14---|
||o------------------------------------------------|
||-------------------------------------------------|
|
|    S  S  S  S  S  S  S  S  S  S  S  S  S  S  E
||--------------------14-15-14---------------------|
||o-------------15-17----------17-15---------------|
||-----14-16-18----------------------18-16-14------|
||--18----------------------------------------18---|
||o------------------------------------------------|
||-------------------------------------------------|


   PM------|         PM---|
   S  S  S  S  S  S  S  S  S  E     E     E    S
|--------------------------------------------------||
|-------------------------------------------------o||
|--------------------------------------------------||
|--------------5--4--------------------------------||
|--2--2--2--2--3--2--2--2--2--4-----5-----4----5--o||
|--0--0--0--0--------0--0--0--2-----3-----2----3---||
|
|  S  S  S  S  S  S  S  S  S  S  S  S  S  S  E
|-------------------11-12-11-----------------------||
|-------------12-13----------13-12----------------o||
|----11-13-14----------------------14-13-11--------||
|-14----------------------------------------14-----||
|-------------------------------------------------o||
|--------------------------------------------------||
|
|  S  S  S  S  S  S  S  S  S  S  S  S  S  S  E
|-------------------14-15-14-----------------------||
|-------------15-17----------17-15----------------o||
|----14-16-18----------------------18-16-14--------||
|-18----------------------------------------18-----||
|-------------------------------------------------o||
|--------------------------------------------------||


   PM------|         PM---|
   S  S  S  S  S  S  S  S  S   E     E      E    S
|--------------------------------------------------|
|--------------------------------------------------|
|--------------------------------------------------|
|--------------5--4--------------------------------|
|--2--2--2--2--3--2--2--2--2---4-----5------7----5-|
|--0--0--0--0--------0--0--0---2-----3------5----3-|
|
|  H                       E.        E.        E
|-12----------------------13--------16--------13---|
|--------------------------------------------------|
|--------------------------------------------------|
|--------------------------------------------------|
|--------------------------------------------------|
|--------------------------------------------------|
|
|  S  S  S  S  S  S  S  S  S   S  S  S   S  S  E
|-------------------14-15-14-----------------------|
|-------------15-17-16-17-16--17-15----------------|
|----14-16-18-16-17-----------17-16-18--16-14------|
|-18-16-18-19-----------------------19--18-16-18---|
|-19------------------------------------------19---|
|--------------------------------------------------|


   PM------|         PM---|
   S  S  S  S  S  S  S  S  S   E     E      E    S
|--------------------------------------------------|
|--------------------------------------------------|
|--------------------------------------------------|
|--------------5--4--------------------------------|
|--2--2--2--2--3--2--2--2--2---4-----5------4----5-|
|--0--0--0--0--------0--0--0---2-----3------2----3-|
|
|  H                       E.        E.        E
|-12----------------------10--------12--------13---|
|--------------------------------------------------|
|--------------------------------------------------|
|--------------------------------------------------|
|--------------------------------------------------|
|--------------------------------------------------|
|
|  S  S  S  S  S  S  S  S  S   S  S  S   S  S  E
|-------------------14-15-14-----------------------|
|-------------15-17-16-17-16--17-15----------------|
|----14-16-18-16-17-----------17-16-18--16-14------|
|-18-16-18-19-----------------------19--18-16-18---|
|-19------------------------------------------19---|
|--------------------------------------------------|


   PM------|         PM---|
   S  S  S  S  S  S  S  S  S   E     E      E    S
|--------------------------------------------------|
|--------------------------------------------------|
|--------------------------------------------------|
|--------------5--4--------------------------------|
|--2--2--2--2--3--2--2--2--2---4-----5------7----5-|
|--0--0--0--0--------0--0--0---2-----3------5----3-|
|
|  H                       E.        E.        E
|-12----------------------13--------16--------17---|
|--------------------------------------------------|
|--------------------------------------------------|
|--------------------------------------------------|
|--------------------------------------------------|
|--------------------------------------------------|
|
|  S  S  S  S  S  S  S  S  S   S  S  S   S  S  E
|-------------------14-15-14-----------------------|
|-------------15-17-16-17-16--17-15----------------|
|----14-16-18-16-17-----------17-16-18--16-14------|
|-18-16-18-19-----------------------19--18-16-18---|
|-19------------------------------------------19---|
|--------------------------------------------------|


   PM------|         PM---|
   S  S  S  S  S  S  S  S  S     E  E  E      S
|-----------------------------------------------|
|-----------------------------------------------|
|-----------------------------------------------|
|--------------5--4-----------------------------|
|--2--2--2--2--3--2--2--2--2-----4--5--4------5-|
|--0--0--0--0--------0--0--0-----2--3--2------3-|
|
|  H                       Q.             +E
|-19----------------------19b20==========(19)r==|
|-----------------------------------------------|
|-----------------------------------------------|
|-----------------------------------------------|
|-----------------------------------------------|
|-----------------------------------------------|
|
|  S  S  S  S  S  S  S  S  Q.             +E
|-------------------14-15-15b17==========(15)r==|
|-------------15-17-16-17-17b18==========(17)r==|
|----14-16-18-16-17-----------------------------|
|-18-16-18-19-----------------------------------|
|-19--------------------------------------------|
|-----------------------------------------------|


  Q=119
 4/4
                                PM|   PM|
   Q.    Q    Q    E   H        S S E S S E
|--------------------|----------------------|
|--------------------|----------------------|
|--1----(1)---0---(0)|-5------------2-----2-|
|--2----(2)--(x)-----|-5------------3-----3-|
|--2-----2---(2)---2S|=3--------2-2-3-2-2-3-|
|--0-----------------|----------0-0-1-0-0-1-|
|
|                          >
|  W                      +W
|-19-----------------|---(19)---------------|
|--------------------|----------------------|
|--------------------|----------------------|
|--------------------|----------------------|
|--------------------|----------------------|
|--------------------|----------------------|
|
|                          >
|  W                      +W
|-15-----------------|---(15)---------------|
|-17-----------------|---(17)---------------|
|--------------------|----------------------|
|--------------------|----------------------|
|--------------------|----------------------|
|--------------------|----------------------|


                           PM|
  Q.    Q    Q    E   H    S S E   S  E.
|-------------------|---------------------|
|-------------------|---------------------|
|-1----(1)---0---(0)|-5--------2----------|
|-2----(2)--(x)-----|-5--------3------0---|
|-2-----2---(2)---2S|=3----2-2-3--/5-(5)--|
|-0-----------------|------0-0-1--/3-(3)--|
|
| W                   W
|-------------------|---------------------|
|-------------------|---------------------|
|-------------------|---------------------|
|-------------------|---------------------|
|-------------------|---------------------|
|-------------------|---------------------|
|
| W                   W
|-------------------|---------------------|
|-------------------|---------------------|
|-------------------|---------------------|
|-------------------|---------------------|
|-------------------|---------------------|
|-------------------|---------------------|


  Gtrs I, II
                           PM|   PM|
  Q.    Q    Q    E   H    S S E S S E
|-------------------|------------------|
|-------------------|------------------|
|-1----(1)---0---(0)|-5--------2-----2-|
|-2----(2)--(x)-----|-5--------3-----3-|
|-2-----2---(2)---2S|=3----2-2-3-2-2-3-|
|-0-----------------|------0-0-1-0-0-1-|


                           PM|
  Q.    Q    Q    E   H    S S E  E. +S
|-------------------|----------------------|
|-------------------|----------------------|
|-1----(1)---0---(0)|-5--------2-----------|
|-2----(2)--(x)-----|-5--------3-----------|
|-2-----2---(2)---2S|=3----2-2-3-/5--(5)\--|
|-0-----------------|------0-0-1-/3--(3)\--|


  Q=125
              PM----|     PM|                   PM----|     PM|
  S S S S S S S T T S S S S S S E   S S S S S S S T T S S S S S S E
|---------------------------------|-----------------------------------|
|---------------------------------|-----------------------------------|
|---------------------------------|-----------------------------------|
|-6-----7---------------------8s7-|-6-----7---------------------------|
|---5-----6-----------7s8-----6s5-|---5-----6-----------8s7-----9s8---|
|-----5-----0-0-0-0-0-5s6-0-0-----|-----5-----0-0-0-0-0-6s5-0-0-7s6---|


                                                   D.S.S. al Dbl. Coda
              PM----|     PM|                   PM----|     PM|
  S S S S S S S T T S S S S S S E   S S S S S S S T T S S S S S S E
|---------------------------------|-------------------------------------|
|---------------------------------|-------------------------------------|
|---------------------------------|-------------------------------------|
|-6-----7---------------------8s7-|-6-----7-----------------------------|
|---5-----6-----------7s8-----6s5-|---5-----6-----------8s7-----9s8-----|
|-----5-----0-0-0-0-0-5s6-0-0-----|-----5-----0-0-0-0-0-6s5-0-0-7s6-----|


  &&
        PM--------|   PM      PM        PM--------|   PM      PM
  S S E S T T T T S E S S S E S   S S E S T T T T S E S S S E S
|-------------------------------|----------------------------------|
|-------------------------------|----------------------------------|
|-------------------------------|----------------------------------|
|-7s8s7-----------------5---5---|-7s8s7----------------------------|
|-5s6s5-------------5---3---3---|-5s6s5-------------5---3---3------|
|-------0-0-0-0-0-0-3-0-------0-|-------0-0-0-0-0-0-3-0-1---1-0----|


     PM|   PM|   PM|     PM----|   PM----|   PM|
  Q  S S E S S E S S E   S S S S E S S S S E S E S
|----------------------|---------------------------|
|-0------1-----1-----1-|---------1---------1-------|
|-1------2-----2-----2-|---------2---------2-------|
|-2------3-----3-----3-|---------3---------3-------|
|-2--2-2-3-2-2-3-2-2-3-|-2-2-2-2-3-2-2-2-2-3-3-3---|
|-0--0-0-1-0-0-1-0-0-1-|-0-0-0-0-1-0-0-0-0-1-1-1---|


  Gtr I
   <
   W           +H      +H        +W            +W
|-----------|-----------------|-------------|---------|
|-----------|-----------------|-------------|---------|
|-----------|-----------------|-------------|---------|
|--9--------|--(9)-----(9)----|--(9)--------|--(9)----|
|--8--------|--(8)-----(8)----|--(8)--------|--(8)----|
|--7--------|--(7)-----(7)----|--(7)--------|--(7)----|
|
| Gtr II
|  <
|  W           +H      +H        +W            +W
|-----------|-----------------|-------------|---------|
|-----------|-----------------|-------------|---------|
|-10--------|-(10)----(10)----|-(10)--------|-(10)----|
|--9--------|--(9)-----(9)----|--(9)--------|--(9)----|
|--8--------|--(8)-----(8)----|--(8)--------|--(8)----|
|-----------|-----------------|-------------|---------|


  +W                 +W
|-----------------|----------*|
|-----------------|----------*|
|-----------------|----------*|
|-(9)-------------|--(9)-----*|
|-(8)-------------|--(8)-----*|
|-(7)-------------|--(7)-----*|
|
|  <
|  H      +H         +W
|-----------------|----------*|
|-----------------|----------*|
|-----------------|----------*|
|-<9>----(<9>)----|-(<9>)----*|
|-13-----(13)-----|-(13)-----*|
|-<9>----(<9>)----|-(<9>)----*|



Duration Legend
---------------
W - whole; H - half; Q - quarter; E - 8th; S - 16th; T - 32nd; X - 64th; a - acciaccatura
+ - note tied to previous; . - note dotted; .. - note double dotted
Uncapitalized letters represent notes that are staccato (1/2 duration)
Irregular groupings are notated above the duration line
Duration letters will always appear directly above the note/fret number it represents the
duration for.  Duration letters with no fret number below them represent rests.  Multi-
bar rests are notated in the form Wxn, where n is the number of bars to rest for.  Low
melody durations appear below the staff

Tablature Legend
----------------
 h   - hammer-on
 p   - pull-off
 b   - bend
 pb  - pre-bend
 r   - bend release (if no number after the r, then release immediately)
 /\  - slide into or out of (from/to "nowhere")
 s   - legato slide
 S   - shift slide
 - natural harmonic
[n]  - artificial harmonic
n(n) - tapped harmonic
 ~   - vibrato
 tr  - trill
 T   - tap
 TP  - trem. picking
 PM  - palm muting
\n/  - tremolo bar dip; n = amount to dip
 \n  - tremolo bar down
 n/  - tremolo bar up
/n\  - tremolo bar inverted dip
 =   - hold bend; also acts as connecting device for hammers/pulls
 <> - volume swell (louder/softer)
 x   - on rhythm slash represents muted slash
 o   - on rhythm slash represents single note slash

Misc Legend
-----------
 |  - bar
||  - double bar
||o - repeat start
o|| - repeat end
*|  - double bar (ending)
 :  - bar (freetime)
 $  - Segno
 &  - Coda
Tempo markers -  = BPM(8/16=s8/s16), where s8 = swing 8ths, s16 = swing 16ths


            
            
Suggest correction
Creating personal tab
Creating personal tab
You can edit any tab online and save it as your Personal.

You can edit, replace or remove any tab part or add personal notes – all changes will be seen only by you.

Personal tabs can be accessed anytime from any device, even offline.
Learn more »
Give kudos to tab author, rate the tab!
1 2 3 4 5
comments
print report bad tab
guest
You may want to rate the tab now too:
select rating
Wanna post a correction for this tab? Suggest correction