Oops, an error
Loading. Please wait.

Overstepping tab

by Belmont
3,658 views 174 this week
2 commentsread comments
1 2 3 4 5
x 7
add to favorites
×
Save as Personal and add changes to this tab that will be seen only by you. Learn more ›
×
You can save this tab as Personal to edit and correct it or add notes. All changes will be seen only by you. Learn more »
launch autoscroll
font size
0
reset
how to read this tab
guitar tuner
edit
Autoscroll
slow
fast
+/-
esc
set tempo
stop
(Rhythm Guitar)

[Intro]
(0:00-0:23)
D#|----------------------------|-------------------------|
A#|----------------------------|-------------------------|
F#|---------------6-6-6-6------|-4----------2-------2----|
C#|-4-4-4-4-------7-7-7-7------|-4---4-2-0----4-2-0---4--|
G#|-5-5-5-5--x-x--5-5-5-5--x-x-|-2-----------------------|
C#|-5-5-5-5--x-x-----------x-x-|-------------------------|

D#|----------------------------|--------------------------------------|
A#|----------------------------|--------------------------------------|
F#|---------------6-6-6-6------|-4----------2---------------2---------|
C#|-4-4-4-4-------7-7-7-7------|-4---4-2-2----0-0-----4-2-2---0-0-----|
G#|-5-5-5-5--x-x--5-5-5-5--x-x-|-0------------------------------------|
C#|-5-5-5-5--x-x-----------x-x-|--------------------------------------|

D#|----------------------------|-------------------------|
A#|----------------------------|-------------------------|
F#|---------------6-6-6-6------|-4----------2-------2----|
C#|-4-4-4-4-------7-7-7-7------|-4---4-2-0----4-2-0---4--|
G#|-5-5-5-5--x-x--5-5-5-5--x-x-|-2-----------------------|
C#|-5-5-5-5--x-x-----------x-x-|-------------------------|

D#|----------------------------|--------------------------------------|
A#|----------------------------|--------------------------------------|
F#|---------------6-6-6-6------|-4----------2---------------2---------|
C#|-4-4-4-4-------7-7-7-7------|-4---4-2-2----0-0-----4-2-2---0-0-----|
G#|-5-5-5-5--x-x--5-5-5-5--x-x-|-0------------------------------------|
C#|-5-5-5-5--x-x-----------x-x-|--------------------------------------|

D#|-------------------------|-------------------5ah--5ah-----------------------------|
A#|-------------------------|-------------------5ah--5ah-----------------------------|
F#|-------------------------|-------------------5ah--5ah-----------------------------|
C#|-5-5--5-5--5-5--5-5--5-5-|--7-7-7-7-7-7------5ah--5ah-----------------------------|
G#|-5-5--5-5--5-5--5-5--5-5-|--7-7-7-7-7-7-------------------------------------------|
C#|-5-5--5-5--5-5--5-5--5-5-|--7-7-7-7-7-7-------------------------------------------|

[Breakdown]
(0:24-0:42)
D#|------------------------|---------------------------------------------------|
A#|------------------------|---------------------------------------------------|
F#|------------------------|---------------------------------------------------|
C#|------------------------|---------------------------------------------------|
G#|-9------9-----9-----7/9-|-0-x-0-x---7---5---7--5----------------------------|
C#|---5-5----5-5---5-5-----|-0-x-0-x-----0---0---------------------------------|

D#|--------------------------------------|-------------------------------------|
A#|--------------------------------------|-------------------------------------|
F#|--------------------------------------|-------------------------------------|
C#|--------------------------------------|-------------------------------------|
G#|-9-----9-----9------10-10-10-10-9-9-9-|--0-x-0-x-0-x--0-0---0-0-0-0-0-0-----|
C#|---5-5---5-5---5-5--------------------|--0-x-0-x-0-x--0-0---0-0-0-0-0-0-----|

D#|------------------------|---------------------------------------------------|
A#|------------------------|---------------------------------------------------|
F#|------------------------|---------------------------------------------------|
C#|------------------------|---------------------------------------------------|
G#|-9------9-----9-----7/9-|-0-x-0-x---7---5---7--5----------------------------|
C#|---5-5----5-5---5-5-----|-0-x-0-x-----0---0---------------------------------|

D#|--------------------------------------|-------------------------------------|
A#|--------------------------------------|-------------------------------------|
F#|--------------------------------------|-------------------------------------|
C#|--------------------------------------|-------------------------------------|
G#|-9-----9-----9------10-10-10-10-9-9-9-|--0-x-0-x-0-x--0-0---0-0-0-0-0-0-----|
C#|---5-5---5-5---5-5--------------------|--0-x-0-x-0-x--0-0---0-0-0-0-0-0-----|

[Pre Verse]
(0:42-0:51)
D#|----------------------------------------------------|---------------------------------------------------|
A#|-7-7---7-7-7-7--7-7--7-7----------------------------|-7-7--7-7-7-7--7-7--7-7----------------------------|
F#|-7-7---7-7-7-7--7-7--7-7----------------------------|-7-7--7-7-7-7--7-7--7-7-----------------6h7p6------|
C#|-5-5---5-5-5-5--5-5--5-5-----7-7---------5---5---5--|-5-5--5-5-5-5--5-5--5-5---7-7-7----7h9p7-------7\4-|
G#|-----------------------------7-7--x-x-x--5-x-5-x-5--|--------------------------7-7-7--------------------|
C#|-----------------------------7-7--x-x-x--5-x-5-x-5--|--------------------------7-7-7--------------------|

[Verse]
(0:52-1:19)
D#|-------------------------------------------------|-------------------------------------------------|
A#|-------------------------------------------------|-------------------------------------------------|
F#|-----------------------2h4p2---------------------|-------------------------------------------------|
C#|-------4-------4-------------4----7~-------------|------4-------4-------2h4p2p0--7~---6h7p6----9p6-|
G#|--5-5--5--5-5--5--5-5-------------9~--7-x-7-x-7--|-5-5--5--5-5--5--5-5-----------9~---------7------|
C#|--5-5--5--5-5--5--5-5-------------9~--7-x-7-x-7--|-5-5--5--5-5--5--5-5-----------9~----------------|

D#|-------------------------------------------------|-------------------------------------------------|
A#|-------------------------------------------------|-------------------------------------------------|
F#|-----------------------2h4p2---------------------|-------------------------------------------------|
C#|-------4-------4-------------4----7~-------------|------4-------4-------2h4p2p0--7~---6h7p6----9p6-|
G#|--5-5--5--5-5--5--5-5-------------9~--7-x-7-x-7--|-5-5--5--5-5--5--5-5-----------9~---------7------|
C#|--5-5--5--5-5--5--5-5-------------9~--7-x-7-x-7--|-5-5--5--5-5--5--5-5-----------9~----------------|

D#|---------------------------------|-----------------------------|-------------------------------------0--|
A#|---------------------------------|-----------------------------|-------------------------------------0--|
F#|-----------------6-6-------------|----------------6-6----------|-------------------------------------0--|
C#|------4-4--------7-7---------7~--|------4-4-------7-7-------7--|-------------------------------------0--|
G#|------5-5--------5-5---------9~--|------5-5-------5-5-------7--|---7-7-7-7-7-7---7-7-7--7--7-7-7--7-----|
C#|-5-5--5-5---5-5---------7-7--9~--|-5-5--5-5---5-5------7-7--7--|---7-7-7-7-7-7---7-7-7--7--7-7-7--7-----|

[Chorus]
(1:20-1:37)
D#|---------------|------------------------------------------|---------------------------|
A#|---------------|-------------------------|----------------|---------------------------|
F#|---------------|-7~--6~-----11~--9/-14---|----------------|-7~--6~--11-9--7-9-7-------|
C#|--7--4--2--0~--|-x~--x~-----x~---x--x----|---7--4--2--0~--|-x~--x~--x--x--x-x-x-------|
G#|--x--x--x--x~--|-5~--4~-----9~---7/-12---|---x--x--x--x~--|-5~--4~--9--7--5/7\5-------|
C#|--7--4--2--0~--|-------------------------|---7--4--2--0~--|---------------------------|

D#|------------------------------------|----------------------------------------------|
A#|------------------------------------|----------------------------------------------|
F#|--------------------------2h4p0-----|----------------------------------------------|
C#|-------9p0-7p0-4p0-2h4p0--------4p0-|-------7p0-11p0-7p0---------------------------|
G#|-5-5--------------------------------|-9-9----------------4-4-4-4--4-4-4-4--4-4-----|
C#|-5-5--------------------------------|-9-9----------------4-4-4-4--4-4-4-4--4-4-----|

D#|------------------------------------|----------------------------------------------|
A#|------------------------------------|----------------------------------------------|
F#|--------------------------2h4p0-----|----------------------------------------------|
C#|-------9p0-7p0-4p0-2h4p0--------4p0-|-------7p0-11p0-7p0---------------------------|
G#|-5-5--------------------------------|-9-9----------------4-4-4-4--4-4-4-4--4-4-----|
C#|-5-5--------------------------------|-9-9----------------4-4-4-4--4-4-4-4--4-4-----|

[Pre-Verse]
(1:38-1:45)
D#|-------------------------|----------------------------|----------------------------------------|
A#|-------------------------|----------------------------|----------------------------------------|
F#|---------6----4-4--4-4-4-|-------6--------------------|--------------6~---------6h7p6----------|
C#|-4---4---7-x--4-4--4-4-4-|-------7-x-2--2-2-2-2-2-2-2-|-----4---4----7~----7h9p7------7h9p7----|
G#|-5-x-5-x-5-x--2-2--2-2-2-|-4-5-x-5-x-4--4-4-4-4-4-4-4-|-----5-x-5-x--5~------------------------|
C#|-5-x-5-x-----------------|-4-5-x-----4--4-4-4-4-4-4-4-|-----5-x-5-x----------------------------|

[Verse 2]
(1:46- 2:02)
D#|---------------------------------------------------|------------------------------------------------------|
A#|---------------------------------------------------|------------------------------------------------------|
F#|------------------------------6-6-------------5----|---------------------------------------6-6------------|
C#|-7-7-7-7---2-2-2-2---4-4-4-4--7-7---6h7p6---6---6--|-7-7-7-7---2-2-2-2---4-4---------------7-7------9~--7~|
G#|-9-9-9-9---4-4-4-4---5-5-5-5--5-5---------7--------|-9-9-9-9---4-4-4-4---5-5--5-5-5-5-5-5--5-5-7-7--9~--7~|
C#|-9-9-9-9---4-4-4-4---5-5-5-5-----------------------|-9-9-9-9---4-4-4-4---5-5--5-5-5-5-5-5------7-7--9~--7~|

D#|---------------------------------------------------------------------------|
A#|---------------------------------------------------------------------------|
F#|-------------------6-6-----------------------------------------------------|
C#|-4-4---------------7-7-------9~---4~---------------------------------------|
G#|-5-5--5-5-5-5-5-5--5-5--7-7--9~---4~---------------------------------------|
C#|-5-5--5-5-5-5-5-5-------7-7--9~---4~---------------------------------------|

[Pre Breakdown]
(2:03-2:15)
D#|-------------------------------|--------------------------------------------|
A#|-------------------------------|-------------------------5------------------|
F#|---------------6p2-----6p2-----|-------------6h7p6-----7---6----------------|
C#|-------------------4p0-----4p0-|-------------------7p0----------------------|
G#|-5-5-5-5---5-5-----------------|-9--9-9--9-9--------------------------------|
C#|-5-5-5-5---5-5-----------------|-9--9-9--9-9--------------------------------|

D#|-------------------------------|--------------------------------------------|
A#|-------------------------------|--------------------------------------------|
F#|---------------6p2-----6p2-----|-------------4p2p0--------------------------|
C#|-------------------4p0-----4p0-|-------------------4p0----------------------|
G#|-5-5-5-5---5-5-----------------|-4--4-4--4-4------------4-------------------|
C#|-5-5-5-5---5-5-----------------|-4--4-4--4-4---------------0----------------|

D#|---------------------------------------------------------------------------|
A#|---------------------------------------------------------------------------|
F#|---------------------------------------------------------------------------|
C#|---------------------------------------------------------------------------|
G#|-5--5-5--5--4--4-4-4---5--5-5--5---4--4-4-4--------------------------------|
C#|-5--5-5--5--4--4-4-4---5--5-5--5---4--4-4-4--------------------------------|

[Breakdown 2]
(2:16- 2:40)
D#|----------------------------------|--------------------------------5-----------------------------|
A#|-------10------7----10/12--12\7---|-------10-----7-----------------5-----------------------------|
F#|-------x-------x----x--x---x--x---|-------x------x-----------------5-----------------------------|
C#|-------7-------4----7/-9---9\-4---|-------7------4-----------------5-----------------------------|
G#|--5-5-----5-5---------------------|--9-9----9-9--------4-4-4-4-----5-----------------------------|
C#|--5-5-----5-5---------------------|--9-9----9-9--------4-4-4-4-----5-----------------------------|

D#|---------------------------------------------------|----------------------------------------------------|
A#|---------------------------------------------------|----------------------------------------------------|
D#|---------------------------------------------------|----------------------------------------------------|
C#|---------------------------------------------------|----------------------------------------------------|
G#|--5-5--5-5--5-5-5-5--5-5---9-9--9-9--4-4-4-4--4-4--|--5-5--5-5--5-5-5-5--5-5---9-9--9-9--4-4-4-4--4-4---|
C#|--5-5--5-5--5-5-5-5--5-5---9-9--9-9--4-4-4-4--4-4--|--5-5--5-5--5-5-5-5--5-5---9-9--9-9--4-4-4-4--4-4---|

D#|---------------------------------------------------|----------------------------------------------------|
A#|---------------------------------------------------|----------------------------------------------------|
D#|---------------------------------------------------|----------------------------------------------------|
C#|---------------------------------------------------|----------------------------------------------------|
G#|--5-5--5-5--0-0-0-0--0-0---9-9--9-9--7-7-7-7--7-7--|--5-5--5-5--0-0-0-0--0-0---9-9--9-9--7-7-7-7--7-7---|
C#|--5-5--5-5--0-0-0-0--0-0---9-9--9-9--7-7-7-7--7-7--|--5-5--5-5--0-0-0-0--0-0---9-9--9-9--7-7-7-7--7-7---|

[Chorus]
(2:40-2:58)
D#|---------------|------------------------------------------|---------------------------|
A#|---------------|-------------------------|----------------|---------------------------|
F#|---------------|-7~--6~-----11~--9/-14---|----------------|-7~--6~--11-9--7-9-7-------|
C#|--7--4--2--0~--|-x~--x~-----x~---x--x----|---7--4--2--0~--|-x~--x~--x--x--x-x-x-------|
G#|--x--x--x--x~--|-5~--4~-----9~---7/-12---|---x--x--x--x~--|-5~--4~--9--7--5/7\5-------|
C#|--7--4--2--0~--|-------------------------|---7--4--2--0~--|---------------------------|

D#|------------------------------------|----------------------------------------------|
A#|------------------------------------|----------------------------------------------|
F#|--------------------------2h4p0-----|----------------------------------------------|
C#|-------9p0-7p0-4p0-2h4p0--------4p0-|-------7p0-11p0-7p0---------------------------|
G#|-5-5--------------------------------|-9-9----------------4-4-4-4--4-4-4-4--4-4-----|
C#|-5-5--------------------------------|-9-9----------------4-4-4-4--4-4-4-4--4-4-----|

D#|------------------------------------|----------------------------------------------|
A#|------------------------------------|----------------------------------------------|
F#|--------------------------2h4p0-----|----------------------------------------------|
C#|-------9p0-7p0-4p0-2h4p0--------4p0-|-------7p0-11p0-7p0---------------------------|
G#|-5-5--------------------------------|-9-9----------------4-4-4-4--4-4-4-4--4-4-----|
C#|-5-5--------------------------------|-9-9----------------4-4-4-4--4-4-4-4--4-4-----|

[Bridge]
(2:59-3:26)
D#|---------------------------------------------------------------------------------------|
A#|--------------------7------------------------------------------------------------------|
F#|--------------------x------------------------------------------------------------------|
C#|-4~-----------------4--------2~--------------------------------------------------------|
G#|-5~---2-2--2-4-0--------2-2--2~--------------------------------------------------------|
C#|-5~---2-2--2-4-0--------2-2--2~--------------------------------------------------------|

D#|-------------------------------------------|--------------------------------------------------------|
A#|-------------------------------------------|--------------------------------------------------------|
F#|-------------------------------------------|--------------------------------------------------------|
C#|-------4p0--------4p0----4p0----4-0---2-0--|-------4p0--------4h7p4p0h2------4-0---2-0--------------|
G#|-5----------5------------------------------|-5---------5--------------------------------------------|
C#|-5-5-5------5-5-5-----5-5-----2-----4------|-5-5-5-----5-5-5---------------2-----4------------------|

D#|-------------------------------------------|--------------------------------------------------------|
A#|-------------------------------------------|--------------------------------------------------------|
F#|-------------------------------------------|--------------------------------------------------------|
C#|-------4p0--------4p0----4p0----4-0---2-0--|-------4p0--------4h7p4p0h2------4-0---2-0--------------|
G#|-5----------5------------------------------|-5---------5--------------------------------------------|
C#|-5-5-5------5-5-5-----5-5-----2-----4------|-5-5-5-----5-5-5---------------2-----4------------------|

[Outro]
(3:27- end)
D#|--------------------------|--------------------------------------------------------------|
A#|--------------------------|--------------------------------------------------------------|
F#|--------------------------|-----------------2h4p2p0--------------------------------------|
C#|-4-----------4---------4--|---2h4p2p0----------------------------------------------------|
G#|-5-----------5---------5--|--------------------------------------------------------------|
C#|-5----5-5-5--5--5-5-5--5--|-2-----------4-4----------------------------------------------|

D#|----x----------------------|-------------------------------------------------------------|
A#|----x----------------------|-------------------------------------------------------------|
F#|----x----------------------|-----------------2h4p2p0-------------------------------------|
C#|-4--x---------4---------4--|---2h4p2p0---------------------------------------------------|
G#|-5--x---------5---------5--|-------------------------------------------------------------|
C#|-5--x--5-5-5--5--5-5-5--5--|-2-----------4-4---------------------------------------------|

D#|----x---x---x---x----0-----|------------------------------------------------------------|
A#|----x---x---x---x----7-----|------------------------------------------------------------|
F#|----x---x---x---x----7-----|-------------------2h4p2p0----------------------------------|
C#|----x---x---x---x----0-----|---2h4p2p0--------------------------------------------------|
G#|--5-x-5-x-5-x-5-x----0-----|------------------------------------------------------------|
C#|--5-x-5-x-5-x-5-x----0-----|-2-------------4-4------------------------------------------|

D#|--------------------------|--------------------------------------------------------------|
A#|--------------------------|--------------------------------------------------------------|
F#|--------------------------|-----------------2h4p2p0--------------------------------------|
C#|-4-----------4---------4--|---2h4p2p0------------------4-4~------------------------------|
G#|-5-----------5---------5--|----------------------------5-5~------------------------------|
C#|-5----5-5-5--5--5-5-5--5--|-2-----------4-4------------5-5~------------------------------|

(Lead Guitar)

[Intro]
(0:00-0:23)
D#|----------------------------|-------------------------|
A#|----------------------------|-------------------------|
F#|---------------6-6-6-6------|-4----------2-------2----|
C#|-4-4-4-4-------7-7-7-7------|-4---4-2-0----4-2-0---4--|
G#|-5-5-5-5--x-x--5-5-5-5--x-x-|-2-----------------------|
C#|-5-5-5-5--x-x-----------x-x-|-------------------------|

D#|----------------------------|--------------------------------------|
A#|----------------------------|--------------------------------------|
F#|---------------6-6-6-6------|-4----------2---------------2---------|
C#|-4-4-4-4-------7-7-7-7------|-4---4-2-2----0-0-----4-2-2---0-0-----|
G#|-5-5-5-5--x-x--5-5-5-5--x-x-|-0------------------------------------|
C#|-5-5-5-5--x-x-----------x-x-|--------------------------------------|

D#|----------------------------|-------------------------|
A#|----------------------------|-------------------------|
F#|---------------6-6-6-6------|-4----------2-------2----|
C#|-4-4-4-4-------7-7-7-7------|-4---4-2-0----4-2-0---4--|
G#|-5-5-5-5--x-x--5-5-5-5--x-x-|-2-----------------------|
C#|-5-5-5-5--x-x-----------x-x-|-------------------------|

D#|----------------------------|--------------------------------------|
A#|----------------------------|--------------------------------------|
F#|---------------6-6-6-6------|-4----------2---------------2---------|
C#|-4-4-4-4-------7-7-7-7------|-4---4-2-2----0-0-----4-2-2---0-0-----|
G#|-5-5-5-5--x-x--5-5-5-5--x-x-|-0------------------------------------|
C#|-5-5-5-5--x-x-----------x-x-|--------------------------------------|

D#|-------------------------|-------------------5ah--5ah-----------------------------|
A#|-------------------------|-------------------5ah--5ah-----------------------------|
F#|-------------------------|-------------------5ah--5ah-----------------------------|
C#|-5-5--5-5--5-5--5-5--5-5-|--7-7-7-7-7-7------5ah--5ah-----------------------------|
G#|-5-5--5-5--5-5--5-5--5-5-|--7-7-7-7-7-7-------------------------------------------|
C#|-5-5--5-5--5-5--5-5--5-5-|--7-7-7-7-7-7-------------------------------------------|

[Breakdown]
(0:24-0:42)
D#|------------------------|---------------------------------------------------|
A#|------------------------|---------------------------------------------------|
F#|------------------------|---------------------------------------------------|
C#|------------------------|---------------------------------------------------|
G#|-9------9-----9-----7/9-|-0-x-0-x---7---5---7--5----------------------------|
C#|---5-5----5-5---5-5-----|-0-x-0-x-----0---0---------------------------------|

D#|--------------------------------------|-------------------------------------|
A#|--------------------------------------|-------------------------------------|
F#|--------------------------------------|-------------------------------------|
C#|--------------------------------------|-------------------------------------|
G#|-9-----9-----9------10-10-10-10-9-9-9-|--0-x-0-x-0-x--0-0---0-0-0-0-0-0-----|
C#|---5-5---5-5---5-5--------------------|--0-x-0-x-0-x--0-0---0-0-0-0-0-0-----|

D#|------------------------|---------------------------------------------------|
A#|------------------------|---------------------------------------------------|
F#|------------------------|---------------------------------------------------|
C#|------------------------|---------------------------------------------------|
G#|-9------9-----9-----7/9-|-0-x-0-x---7---5---7--5----------------------------|
C#|---5-5----5-5---5-5-----|-0-x-0-x-----0---0---------------------------------|

D#|--------------------------------------|-------------------------------------|
A#|--------------------------------------|-------------------------------------|
F#|--------------------------------------|-------------------------------------|
C#|--------------------------------------|-------------------------------------|
G#|-9-----9-----9------10-10-10-10-9-9-9-|--0-x-0-x-0-x--0-0---0-0-0-0-0-0-----|
C#|---5-5---5-5---5-5--------------------|--0-x-0-x-0-x--0-0---0-0-0-0-0-0-----|

[Pre Verse]
(0:42-0:51)
D#|----------------------------------------------------|---------------------------------------------------|
A#|-7-7---7-7-7-7--7-7--7-7----------------------------|-7-7--7-7-7-7--7-7--7-7----------------------------|
F#|-7-7---7-7-7-7--7-7--7-7----------------------------|-7-7--7-7-7-7--7-7--7-7-----------------6h7p6------|
C#|-5-5---5-5-5-5--5-5--5-5-----7-7---------5---5---5--|-5-5--5-5-5-5--5-5--5-5---7-7-7----7h9p7-------7\4-|
G#|-----------------------------7-7--x-x-x--5-x-5-x-5--|--------------------------7-7-7--------------------|
C#|-----------------------------7-7--x-x-x--5-x-5-x-5--|--------------------------7-7-7--------------------|

[Verse]
(0:52-1:19)
D#|----------------5h7p5--------------|-----------------------------------------|
A#|-----7-----7----------7~-10-7-10-7-|-----7-----7-----------------------------|
F#|-7/9---7/9---7/9-------------------|-7/9---7/9---7---9/11\9---7---9--6-------|
C#|-----------------------------------|----------------------------7------------|
G#|-----------------------------------|-----------------------------------------|
C#|-----------------------------------|-----------------------------------------|

D#|----------------5h7p5--------------|-----------------------------------------|
A#|-----7-----7----------7~-10-7-10-7-|-----7-----7-----------------------------|
F#|-7/9---7/9---7/9-------------------|-7/9---7/9---7---9/11\9---7---9--6-------|
C#|-----------------------------------|----------------------------7------------|
G#|-----------------------------------|-----------------------------------------|
C#|-----------------------------------|-----------------------------------------|

D#|-----------------------------|------------------|
A#|-------10-7~--10p7-----------|---10-12----------|
F#|-7~-9--------------9/11\9--7-|---------11~---9~-|
C#|-----------------------------|-9----------------|
G#|-----------------------------|------------------|
C#|-----------------------------|------------------|

[Chorus]
(1:20-1:37)
D#|----------------------------------|-----------------------------------------|
A#|----7p5---7p5----5~------5---5----|---10p7----10p7------7/5\10--------------|
F#|--7-----7-----7-----7-7----7---7--|-7-------7-------7---x/x\x---------------|
C#|----------------------------------|---------------------4/2\7---------------|
G#|----------------------------------|-----------------------------------------|
C#|----------------------------------|-----------------------------------------|

D#|----------------------------------|-----------------------------------------|
A#|----7p5---7p5----5~------5---5----|---10p7----10p7------7/5-5---------------|
F#|--7-----7-----7-----7-7----7---7--|-7-------7-------7---x/x-x---------------|
C#|----------------------------------|---------------------4/2-2---------------|
G#|----------------------------------|-----------------------------------------|
C#|----------------------------------|-----------------------------------------|

D#|--------------|--------------|---------------|-----------------------------------------|
A#|---7p5----7p5-|---5------5---|---10p7---10p7-|-----------------------------------------|
F#|-7------7-----|-7---6--7---6-|-7------7------|-----------------------------------------|
C#|--------------|--------------|---------------|-----------------------------------------|
G#|--------------|--------------|---------------|-------4-4-4-4--4-4-4-4--4-4-------------|
C#|--------------|--------------|---------------|-------4-4-4-4--4-4-4-4--4-4-------------|

D#|--------------|--------------|---------------|-----------------------------------------|
A#|---7p5----7p5-|---5------5---|---10p7---10p7-|-----------------------------------------|
F#|-7------7-----|-7---6--7---6-|-7------7------|-----------------------------------------|
C#|--------------|--------------|---------------|-----------------------------------------|
G#|--------------|--------------|---------------|-------4-4-4-4--4-4-4-4--4-4-------------|
C#|--------------|--------------|---------------|-------4-4-4-4--4-4-4-4--4-4-------------|

[Pre-Verse]
(1:38-1:45)
D#|-------------------------|----------------------------|----------------------------------------|
A#|-------------------------|----------------------------|----------------------------------------|
F#|---------6----4-4--4-4-4-|-------6--------------------|--------------6~---------6h7p6----------|
C#|-4---4---7-x--4-4--4-4-4-|-------7-x-2--2-2-2-2-2-2-2-|-----4---4----7~----7h9p7------7h9p7----|
G#|-5-x-5-x-5-x--2-2--2-2-2-|-4-5-x-5-x-4--4-4-4-4-4-4-4-|-----5-x-5-x--5~------------------------|
C#|-5-x-5-x-----------------|-4-5-x-----4--4-4-4-4-4-4-4-|-----5-x-5-x----------------------------|

[Verse 2]
(1:46- 2:02)
D#|---------------------------------------------------|------------------------------------------------------|
A#|---------------------------------------------------|------------------------------------------------------|
F#|------------------------------6-6-------------5----|---------------------------------------6-6------------|
C#|-7-7-7-7---2-2-2-2---4-4-4-4--7-7---6h7p6---6---6--|-7-7-7-7---2-2-2-2---4-4---------------7-7------9~--7~|
G#|-9-9-9-9---4-4-4-4---5-5-5-5--5-5---------7--------|-9-9-9-9---4-4-4-4---5-5--5-5-5-5-5-5--5-5-7-7--9~--7~|
C#|-9-9-9-9---4-4-4-4---5-5-5-5-----------------------|-9-9-9-9---4-4-4-4---5-5--5-5-5-5-5-5------7-7--9~--7~|

D#|-------------------------------|-----------------------------------------------------|
A#|-10-7---7------10----10--------|-7---------10----------------------------------------|
F#|------9---9-7------7----7------|---9-7-9-7----9-7-9-7--------------------------------|
C#|-------------------------------|-----------------------------------------------------|
G#|-------------------------------|-----------------------------------------------------|
C#|-------------------------------|-----------------------------------------------------|

[Pre Breakdown]
(2:03-2:15)
D#|-------------------------------|--------------------------------------------|
A#|-------------------------------|-------------------------5------------------|
F#|---------------6p2-----6p2-----|-------------6h7p6-----7---6----------------|
C#|-------------------4p0-----4p0-|-------------------7p0----------------------|
G#|-5-5-5-5---5-5-----------------|-9--9-9--9-9--------------------------------|
C#|-5-5-5-5---5-5-----------------|-9--9-9--9-9--------------------------------|

D#|-------------------------------|--------------------------------------------|
A#|-------------------------------|--------------------------------------------|
F#|---------------6p2-----6p2-----|-------------4p2p0--------------------------|
C#|-------------------4p0-----4p0-|-------------------4p0----------------------|
G#|-5-5-5-5---5-5-----------------|-4--4-4--4-4------------4-------------------|
C#|-5-5-5-5---5-5-----------------|-4--4-4--4-4---------------0----------------|

D#|---------------------------------------------------------------------------|
A#|---------------------------------------------------------------------------|
F#|---------------------------------------------------------------------------|
C#|---------------------------------------------------------------------------|
G#|-5--5-5--5--4--4-4-4---5--5-5--5---4--4-4-4--------------------------------|
C#|-5--5-5--5--4--4-4-4---5--5-5--5---4--4-4-4--------------------------------|

[Breakdown 2]
(2:16- 2:40)
D#|----------------------------------|--------------------------------5-----------------------------|
A#|-------10------7----10/12--12\7---|-------10-----7-----------------5-----------------------------|
F#|-------x-------x----x--x---x--x---|-------x------x-----------------5-----------------------------|
C#|-------7-------4----7/-9---9\-4---|-------7------4-----------------5-----------------------------|
G#|--5-5-----5-5---------------------|--9-9----9-9--------4-4-4-4-----5-----------------------------|
C#|--5-5-----5-5---------------------|--9-9----9-9--------4-4-4-4-----5-----------------------------|

D#|----------------------------------|--------------------------------------------------|
A#|-------10------7----10/12--12\7---|-------10-----7---5/7--7\5------------------------|
F#|-------x-------x----x--x---x--x---|-------x------x---x-x--x-x------------------------|
C#|-------7-------4----7/-9---9\-4---|-------7------4---2/4--4\2------------------------|
G#|--5-5-----5-5---------------------|--9-9----9-9--------------------------------------|
C#|--5-5-----5-5---------------------|--9-9----9-9--------------------------------------|

D#|----------------------------------|--------------------------------------------------|
A#|-------10------7----10/12--12\7---|-------10-----7---5/7--7\5------------------------|
F#|-------x-------x----x--x---x--x---|-------x------x---x-x--x-x------------------------|
C#|-------7-------4----7/-9---9\-4---|-------7------4---2/4--4\2------------------------|
G#|--5-5-----5-5---------------------|--9-9----9-9--------------------------------------|
C#|--5-5-----5-5---------------------|--9-9----9-9--------------------------------------|

D#|------------------------------------|------------------------------------------------|
A#|------------------7----12/10--10/7--|-------------------7----10/7--7-7---------------|
F#|------/9----------x----x/-x---x/-x--|--------/9---------x----x/-x--x-x---------------|
C#|------/x----------4----9/-7---7/-4--|--------/x---------4----7/-4--4-4---------------|
G#|-5-5--/7-----5-5--------------------|--9-9---/7----9-9-------------------------------|
C#|-5-5---------5-5--------------------|--9-9---------9-9-------------------------------|

D#|------------------------------------|-------------------------------------------|----------------------|
A#|------------------7----12/10--10/7--|-------------------7-----------------------|----------------------|
F#|------/9----------x----x/-x---x/-x--|--------/9---------x-----------------------|----------------------|
C#|------/x----------4----9/-7---7/-4--|--------/x---------4-----------------------|----------------------|
G#|-5-5--/7-----5-5--------------------|--9-9---/7----9-9------7---------7-----7---|---------7-----7------|
C#|-5-5---------5-5--------------------|--9-9---------9-9------7--7-7-7--7-7-7-7-7-|---7-7-7-7-7-7-7-7----|

[Chorus]
(2:40-2:58)
D#|----------------------------------|-----------------------------------------|
A#|----7p5---7p5----5~------5---5----|---10p7----10p7------7/5\10--------------|
F#|--7-----7-----7-----7-7----7---7--|-7-------7-------7---x/x\x---------------|
C#|----------------------------------|---------------------4/2\7---------------|
G#|----------------------------------|-----------------------------------------|
C#|----------------------------------|-----------------------------------------|

D#|----------------------------------|-----------------------------------------|
A#|----7p5---7p5----5~------5---5----|---10p7----10p7------7/5-5---------------|
F#|--7-----7-----7-----7-7----7---7--|-7-------7-------7---x/x-x---------------|
C#|----------------------------------|---------------------4/2-2---------------|
G#|----------------------------------|-----------------------------------------|
C#|----------------------------------|-----------------------------------------|

D#|--------------|--------------|---------------|-----------------------------------------|
A#|---7p5----7p5-|---5------5---|---10p7---10p7-|-----------------------------------------|
F#|-7------7-----|-7---6--7---6-|-7------7------|-----------------------------------------|
C#|--------------|--------------|---------------|-----------------------------------------|
G#|--------------|--------------|---------------|-------4-4-4-4--4-4-4-4--4-4-------------|
C#|--------------|--------------|---------------|-------4-4-4-4--4-4-4-4--4-4-------------|

D#|--------------|--------------|---------------|-----------------------------------------|
A#|---7p5----7p5-|---5------5---|---10p7---10p7-|-----------------------------------------|
F#|-7------7-----|-7---6--7---6-|-7------7------|-----------------------------------------|
C#|--------------|--------------|---------------|-----------------------------------------|
G#|--------------|--------------|---------------|-------4-4-4-4--4-4-4-4--4-4-------------|
C#|--------------|--------------|---------------|-------4-4-4-4--4-4-4-4--4-4-------------|

[Bridge]
(2:59-3:26)
D#|---------------------------------------------------------------------------------------|
A#|---------------------------------------------------------------------------------------|
F#|-7~------7/14\9/11---------------------------------------------------------------------|
C#|-x~------x/x-\x/x----------------------------------------------------------------------|
G#|-5~------5/12\7/9----------------------------------------------------------------------|
C#|---------------------------------------------------------------------------------------|

D#|-------------------------------------------|--------------------------------------------------------|
A#|-------------------------------------------|--------------------------------------------------------|
F#|-------------------------------------------|--------------------------------------------------------|
C#|-------4p0--------4p0----4p0----4-0---2-0--|-------4p0--------4h7p4p0h2------4-0---2-0--------------|
G#|-5----------5------------------------------|-5---------5--------------------------------------------|
C#|-5-5-5------5-5-5-----5-5-----2-----4------|-5-5-5-----5-5-5---------------2-----4------------------|

D#|-------------------------------------------|--------------------------------------------------------|
A#|-------------------------------------------|--------------------------------------------------------|
F#|-------------------------------------------|--------------------------------------------------------|
C#|-------4p0--------4p0----4p0----4-0---2-0--|-------4p0--------4h7p4p0h2------4-0---2-0--------------|
G#|-5----------5------------------------------|-5---------5--------------------------------------------|
C#|-5-5-5------5-5-5-----5-5-----2-----4------|-5-5-5-----5-5-5---------------2-----4------------------|

[Outro]
(3:27-end)
D#|--------------------------|--------------------------------------------------------------|
A#|--------------------------|--------------------------------------------------------------|
F#|--------------------------|-----------------2h4p2p0--------------------------------------|
C#|-4-----------4---------4--|---2h4p2p0----------------------------------------------------|
G#|-5-----------5---------5--|--------------------------------------------------------------|
C#|-5----5-5-5--5--5-5-5--5--|-2-----------4-4----------------------------------------------|

D#|----x----------------------|-------------------------------------------------------------|
A#|----x----------------------|-------------------------------------------------------------|
F#|----x----------------------|-----------------2h4p2p0-------------------------------------|
C#|-4--x---------4---------4--|---2h4p2p0---------------------------------------------------|
G#|-5--x---------5---------5--|-------------------------------------------------------------|
C#|-5--x--5-5-5--5--5-5-5--5--|-2-----------4-4---------------------------------------------|

D#|----x---x---x---x----0-----|------------------------------------------------------------|
A#|----x---x---x---x----7-----|------------------------------------------------------------|
F#|----x---x---x---x----7-----|-------------------2h4p2p0----------------------------------|
C#|----x---x---x---x----0-----|---2h4p2p0--------------------------------------------------|
G#|--5-x-5-x-5-x-5-x----0-----|------------------------------------------------------------|
C#|--5-x-5-x-5-x-5-x----0-----|-2-------------4-4------------------------------------------|

D#|--------------------------|--------------------------------------------------------------|
A#|--------------------------|--------------------------------------------------------------|
F#|--------------------------|-----------------2h4p2p0--------------------------------------|
C#|-4-----------4---------4--|---2h4p2p0------------------4-4~------------------------------|
G#|-5-----------5---------5--|----------------------------5-5~------------------------------|
C#|-5----5-5-5--5--5-5-5--5--|-2-----------4-4------------5-5~------------------------------|


************************************

| x   Dead note
| ah  Artificial harmonic
| h   Hammer-on
| p   Pull-off
| /   Slide up
| \   Slide down
| ~   Vibrat
| PM  Palm mute

************************************

            
            
Suggest correction
Creating personal tab
Creating personal tab
You can edit any tab online and save it as your Personal.

You can edit, replace or remove any tab part or add personal notes – all changes will be seen only by you.

Personal tabs can be accessed anytime from any device, even offline.
Learn more »
comments
print report bad tab
2 comments total.
0 reply
jbm565 238 Oct 01, 2017 02:42 PM

make a guitar pro tab please?

0 reply
HoochyYoung 10 Oct 06, 2017 08:59 AM

I was gonna leave a nice short note but the app feels like taunting me for it being to short so I'm getting part tHaTs AlL tHe LoVe YoU gOt? YoU cAn Do BeTtEr

guest
You may want to rate the tab now too:
select rating
Wanna post a correction for this tab? Suggest correction