Oops, an error
Loading. Please wait.

Fight For Your Mind bass

version 2
version 2

Whole song

Interactive

4,799 views 1 this week
no commentswrite comment
1 2 3 4 5
2 more votes to show rating
add to favorites
×
Save as Personal and add changes to this tab that will be seen only by you. Learn more ›
×
You can save this tab as Personal to edit and correct it or add notes. All changes will be seen only by you. Learn more »
launch autoscroll
font size
0
reset
guitar tuner
edit
Autoscroll
slow
fast
+/-
esc
set tempo
stop
Difficulty
intermediate
-----------------------------------------------------------------------------
			     Fight For Your Mind –Ben Harper
-----------------------------------------------------------------------------
Tabbed By : Drew

This is the Album version- But there’s a little of the live version at the bottom

Tuning: GDAE

Section A
G|---------------5------------------|------------5------------x/7-5~--------|
D|------3---5h6h7-7\-------3-5h6h7\-|-----3---567-7\--------3---------------|
A|-3-5xx--(5)---------3-5xx(5)------|3-5xx--(5)--------3-5xx----------------|
E|----------------------------------|---------------------------------------|
Fourth time stop here_______________|


Section B
This is tricky to understand- it’s but an octave lower and with fills:
G|--------------------------------------------------------------------------|
D|-----------------------------------3----------------------------------5-3-|
A|-3-5xx--------3----------------3-5---5—-3-5xx------3--------------3-5----5|
E|------1--03h4h5-5\---1-3xx3-/5---------------1-0345-5/---1-3xx3-5---------|
				|this part| in line with drums     |this too-|


G|-----------------4---2------------------------------------------------------|
D|----------------------------------------------------------------------------|
A|-repeat and do -------------------------------------------------------------|
E|----------------3--1---0----\--leads into next section----------------------|


Repeat Section A
Then Repeat Section B
Now Section C/Solo:
G|--------------------------------|---------------------------2/3/4~--------|
D|--------------------------------|------------(/5535-x3323)--3/4/5~--------|
A|-5535-x33-3-x------------------3|-5535-x33-3------------------------------|
E|---------5---5535-x3313-101310--|---------5---/5535-x3313-----------------|
  Repeat this_____________________|


Solo:
G|--------------------------3/4---------------------------------------------|
D|-x4/5----------x5p3-3---3/4/5---------------------------------------------|
A|-----2x3x4x5-------5----------223344--------------------------------------|
E|-------------3-----------------------3--1--0------------------------------|
					|this   | is in line with drums


Or the live version solo:            These˅˅˅ slapped mutes go between 
1 and 2 (the G and the F) so theyre really  ˅˅˅ fast
G|-----------------------------5p4x---------x-------------------------------|
D|-x4/5----------x5p3-3-+5+---3----3----------------------------------------|
A|-----2x3x4x5-------5-------5------5---------------------------------------|
E|-------------3-----------------------x3-xx-1--0---------------------------|
					 |With drum|s


Then Do Section A once, then rest while Ben sings,
Come in with Section A once when he Says “don’t your fear…” (come in) “…What you don’t know…”,
Then do Section B,
Rest a bit,
Then do Section D Till The end:

G|--------------------------------------------------------------------------|
D|------3~---------------3~------------------------------3h4p3h4p3----------|
A|-3-5-x--5-3h5---(0)3-5---x5-3-------some people do-3-5-----------5-3h5----|
E|--------------------------------------------------------------------------|

Sorry if this is hard to understand- I did my best explaining stuff.  Take out all the 
if your want and just listen to the song- the notes are correct it’s just the rhythm 
iffy.

And sorry for those looking for the live version.  Look up Stefano’s version on Youtube, 
has a tutorial.  Here’s the beginning:

G|----12-13-14-10h11p10-----------------------------------------------------|
D|-/15---------------------10/9----------/12--------------------------------|
A|----------------------12------10-8----8-----------------------------------|
E|-----------------------------------10-------------------------------------|

G|----10----1010--------10----1010---------|-----10—1010----12p10------10---|
D|/12----12------12--------12------12---12-o-/12---12---12-------12-10---12~|
A|------------------------------------x----o--------------------------------|
E|-----------------------------------------|--------------------------------|

G|/14--13--12-x10h12--------------------------------------------------------|
D|---10--10-------------10/9------------------------------------------------|
A|-------------------12-----10-8x-8h10--------------------------------------|
E|--------------------------------------------------------------------------|

| /  slide up
| \  slide down
| h  hammer-on
| p  pull-off
| ~  vibrato
| +  harmonic
| x  Mute note
| S  Slap Note
| P  Pop Note
| *  Very Fast
=============================================================================

            
            
Suggest correction
Creating personal tab
Creating personal tab
You can edit any tab online and save it as your Personal.

You can edit, replace or remove any tab part or add personal notes – all changes will be seen only by you.

Personal tabs can be accessed anytime from any device, even offline.
Learn more »
Give kudos to tab author, rate the tab!
1 2 3 4 5
comments
print report bad tab
guest
Wanna post a correction for this tab? Suggest correction