Oops, an error
Loading. Please wait.
We have an official Forever tab made by UG professional guitarists. Check out the tab »
×
151,584 views 108 this week
10 commentsread comments
1 2 3 4 5
x 75
add to favorites
×
Save as Personal and add changes to this tab that will be seen only by you. Learn more ›
×
You can save this tab as Personal to edit and correct it or add notes. All changes will be seen only by you. Learn more »
launch autoscroll
font size
0
reset
how to read this tab
guitar tuner
edit
Autoscroll
slow
fast
+/-
esc
set tempo
stop
Author
Unregistered
From: "Pat and Lorrie"
Subject: h/harper_ben/forever.tab
Date: Tue, 15 Feb 2000 16:38:00 -0500

Title : Forever
Author : Ben Harper
Transcriber : Patrick Goegan (thebooge@igs.net)

This is an improved version of the tab already existing at OLGA

[Intro]
e|-------------------------------------------------------------|
B|--0h1--1-----0--0----0h1p0--------1----1------3--------------|
G|--0----2-----0--0---2-----2-------0----2-----0---------------|
D|--2----3-----------2-------2------2----3----0----------------|
A|-------------------------------------------------------------|
E|----------3--------------------------------3-----------------|

[Verse]
e|-------------------------------------------------------------|
B|--0---1-------------1--------0---0---------0h1p0-------------|
G|--0---0-------------2--------0---0--------2-----2------------|
D|--0---2-------------3--------------------2-------2-----------|
A|-------------------------------------------------------------|
E|--------------------------3----------------------------------|

e|-------------------------------------------------------------|
B|------1--------------------1-------0---0---------0h1p0-------|
G|------0--------------------2-------0---0--------2-----2------|
D|------2--------------------3-------------------2-------2-----|
A|-------------------------------------------------------------|
E|--------------------------------3----------------------------|

e|-------------------------------------------------------------|
B|------1-----------1--------------0-------0---------0h1p0h1p0-|
G|------0-----------2--------------0-------0--------2----------|
D|------2-----------3------------------------------2-----------|
A|-------------------------------------------------------------|
E|----------------------------3--------------------------------|

e|-------------------------------------------------------------|
B|------1-----------1--------------0-------0-------1---------1-|
G|------0-----------2--------------0-------0-------0---------0-|
D|------2-----------3------------------------------2---------0-|
A|-------------------------------------------------------------|
E|----------------------------3--------------------------------|

[Chorus]
e|-------------------------------------------------------------|
B|----1--------3---------0h1p0---------------------------------|
G|----0--------0--------2-----2--0-----------------------------|
D|----2--------0-------2-------2-------------------------------|
A|-------------------------------------------------------------|
E|-------------------------------------------------------------|

e|-------------------------------------------------------------|
B|--0-1--------3---------0h1p0---------------------------------|
G|--0-0--------0--------2-----2--0-----------------------------|
D|--0-2--------0-------2-------2-------------------------------|
A|-------------------------------------------------------------|
E|-------------------------------------------------------------|

e|-------------------------------------------------------------|
B|--0-1--------3---------0h1p0---------------------------------|
G|--0-0--------0--------2-----2--0-----------------------------|
D|--0-2--------0-------2-------2-------------------------------|
A|-------------------------------------------------------------|
E|-------------------------------------------------------------|

e|-------------------------------------------------------------|
B|--0-1-------3-------------0--1--1----------------------------|
G|--0-0-------0----0--------0--0--0----------------------------|
D|--0-2-------0-------------0--2--0----------------------------|
A|-------------------------------------------------------------|
E|-----------------------3-------------------------------------|


e|-------------------------------------------------------------|
B|--0---1-------------1--------0---0---------0h1p0-------------|
G|--0---0-------------2--------0---0--------2-----2------------|
D|--0---2-------------3--------------------2-------2-----------|
A|-------------------------------------------------------------|
E|--------------------------3----------------------------------|

e|-------------------------------------------------------------|
B|------1--------------------1-------0---0---------0h1p0-------|
G|------0--------------------2-------0---0--------2-----2------|
D|------2--------------------3-------------------2-------2-----|
A|-------------------------------------------------------------|
E|--------------------------------3----------------------------|

e|-------------------------------------------------------------|
B|------1-----------1--------------0-------0---------0h1p0h1p0-|
G|------0-----------2--------------0-------0--------2----------|
D|------2-----------3------------------------------2-----------|
A|-------------------------------------------------------------|
E|----------------------------3--------------------------------|

e|-------------------------------------------------------------|
B|------1-----------1--------------0-------0-------1---------1-|
G|------0-----------2--------------0-------0-------0---------0-|
D|------2-----------3------------------------------2---------0-|
A|-------------------------------------------------------------|
E|----------------------------3--------------------------------|

[Chorus]
e|-------------------------------------------------------------|
B|----1--------3---------0h1p0---------------------------------|
G|----0--------0--------2-----2--0-----------------------------|
D|----2--------0-------2-------2-------------------------------|
A|-------------------------------------------------------------|
E|-------------------------------------------------------------|

e|-------------------------------------------------------------|
B|--0-1--------3---------0h1p0---------------------------------|
G|--0-0--------0--------2-----2--0-----------------------------|
D|--0-2--------0-------2-------2-------------------------------|
A|-------------------------------------------------------------|
E|-------------------------------------------------------------|

e|-------------------------------------------------------------|
B|--0-1--------3---------0h1p0---------------------------------|
G|--0-0--------0--------2-----2--0-----------------------------|
D|--0-2--------0-------2-------2-------------------------------|
A|-------------------------------------------------------------|
E|-------------------------------------------------------------|

e|-------------------------------------------------------------|
B|--0-1-------3-------------0--1--1----------------------------|
G|--0-0-------0----0--------0--0--0----------------------------|
D|--0-2-------0-------------0--2--0----------------------------|
A|-------------------------------------------------------------|
E|-----------------------3-------------------------------------|

e|-------------------------------------------------------------|
B|--0---1-------------1--------0---0---------0h1p0-------------|
G|--0---0-------------2--------0---0--------2-----2------------|
D|--0---2-------------3--------------------2-------2-----------|
A|-------------------------------------------------------------|
E|--------------------------3----------------------------------|

e|-------------------------------------------------------------|
B|------1--------------------1-------0---0---------0h1p0-------|
G|------0--------------------2-------0---0--------2-----2------|
D|------2--------------------3-------------------2-------2-----|
A|-------------------------------------------------------------|
E|--------------------------------3----------------------------|

e|-------------------------------------------------------------|
B|------1-----------1--------------0-------0---------0h1p0h1p0-|
G|------0-----------2--------------0-------0--------2----------|
D|------2-----------3------------------------------2-----------|
A|-------------------------------------------------------------|
E|----------------------------3--------------------------------|

e|-------------------------------------------------------------|
B|------1-----------1--------------0-------0-------1---------1-|
G|------0-----------2--------------0-------0-------0---------0-|
D|------2-----------3------------------------------2---------0-|
A|-------------------------------------------------------------|
E|----------------------------3--------------------------------|

[Chorus]
e|-------------------------------------------------------------|
B|----1--------3---------0h1p0---------------------------------|
G|----0--------0--------2-----2--0-----------------------------|
D|----2--------0-------2-------2-------------------------------|
A|-------------------------------------------------------------|
E|-------------------------------------------------------------|

e|-------------------------------------------------------------|
B|--0-1--------3---------0h1p0---------------------------------|
G|--0-0--------0--------2-----2--0-----------------------------|
D|--0-2--------0-------2-------2-------------------------------|
A|-------------------------------------------------------------|
E|-------------------------------------------------------------|

e|-------------------------------------------------------------|
B|--0-1--------3---------0h1p0---------------------------------|
G|--0-0--------0--------2-----2--0-----------------------------|
D|--0-2--------0-------2-------2-------------------------------|
A|-------------------------------------------------------------|
E|-------------------------------------------------------------|

e|-------------------------------------------------------------|
B|--0-1-------3-------------0--1--1----------------------------|
G|--0-0-------0----0--------0--0--0----------------------------|
D|--0-2-------0-------------0--2--0----------------------------|
A|-------------------------------------------------------------|
E|-----------------------3-------------------------------------|

e|-------------------------------------------------------------|
B|--0---1-------------1--------0---0---------0h1p0-------------|
G|--0---0-------------2--------0---0--------2-----2------------|
D|--0---2-------------3--------------------2-------2-----------|
A|-------------------------------------------------------------|
E|--------------------------3----------------------------------|

e|-------------------------------------------------------------|
B|------1--------------------1-------0---0---------0h1p0-------|
G|------0--------------------2-------0---0--------2-----2------|
D|------2--------------------3-------------------2-------2-----|
A|-------------------------------------------------------------|
E|--------------------------------3----------------------------|

e|-------------------------------------------------------------|
B|------1-----------1--------------0-------0---------0h1p0h1p0-|
G|------0-----------2--------------0-------0--------2----------|
D|------2-----------3------------------------------2-----------|
A|-------------------------------------------------------------|
E|----------------------------3--------------------------------|

e|-------------------------------------------------------------|
B|------1-----------1--------------0-------0-------1---------1-|
G|------0-----------2--------------0-------0-------0---------0-|
D|------2-----------3------------------------------2---------0-|
A|-------------------------------------------------------------|
E|----------------------------3--------------------------------|

[Chorus]
e|-------------------------------------------------------------|
B|----1--------3---------0h1p0---------------------------------|
G|----0--------0--------2-----2--0-----------------------------|
D|----2--------0-------2-------2-------------------------------|
A|-------------------------------------------------------------|
E|-------------------------------------------------------------|

e|-------------------------------------------------------------|
B|--0-1--------3---------0h1p0---------------------------------|
G|--0-0--------0--------2-----2--0-----------------------------|
D|--0-2--------0-------2-------2-------------------------------|
A|-------------------------------------------------------------|
E|-------------------------------------------------------------|

e|-------------------------------------------------------------|
B|--0-1--------3---------0h1p0---------------------------------|
G|--0-0--------0--------2-----2--0-----------------------------|
D|--0-2--------0-------2-------2-------------------------------|
A|-------------------------------------------------------------|
E|-------------------------------------------------------------|

e|-------------------------------------------------------------|
B|--0-1-------3-------------0--1--1----------------------------|
G|--0-0-------0----0--------0--0--0----------------------------|
D|--0-2-------0-------------0--2--0----------------------------|
A|-------------------------------------------------------------|
E|-----------------------3-------------------------------------|

end with
e|----------------------------|
B|--0-1------3-----1--0--1----|
G|--0-0------0-----0--0--0----|
D|--0-2------0-----2--0--2----|
A|----------------------------|
E|----------------------------|


************************************

| h  Hammer-on
| p  Pull-off

************************************

            
            
Suggest correction
Creating personal tab
Creating personal tab
You can edit any tab online and save it as your Personal.

You can edit, replace or remove any tab part or add personal notes – all changes will be seen only by you.

Personal tabs can be accessed anytime from any device, even offline.
Learn more »
comments
print report bad tab
10 comments total. Showing first comments.
0 reply
fishboneul03 80 Nov 16, 2003 07:00 PM

the last chord plucked in the chorus should be
---
-3-
-0-
-0-
---
---

+1 reply
fishboneul03 80 Nov 18, 2003 07:00 PM

nevermind, this tab is perfect!!

0 reply
bJoelFan13 226 Sep 22, 2006 01:01 PM

This might be one of the best tabs out there.

guest
Wanna post a correction for this tab? Suggest correction